999
dxflib 2.0.4.0
  0
SECTION
  2
HEADER
  9
$ACADVER
  1
AC1015
  9
$HANDSEED
  5
FFFF
  9
$DIMASZ
 40
2.5
  9
$DIMGAP
 40
0.625
  9
$DIMEXO
 40
0.625
  9
$INSUNITS
 70
4
  9
$DIMTXT
 40
2.5
  9
$DIMSTYLE
  2
Standard
  9
$PLIMMAX
 10
210.0
 20
297.0
  9
$PLIMMIN
 10
0.0
 20
0.0
  9
$PINSBASE
 10
53.7500000000000426
 20
115.5000000000001705
 30
0.0
  9
$DIMEXE
 40
1.25
  0
ENDSEC
  0
SECTION
  2
TABLES
  0
TABLE
  2
VPORT
  5
8
100
AcDbSymbolTable
 70
1
  0
VPORT
  5
30
100
AcDbSymbolTableRecord
100
AcDbViewportTableRecord
  2
*Active
 70
0
 10
0.0
 20
0.0
 11
1.0
 21
1.0
 12
286.3055555555554861
 22
148.5
 13
0.0
 23
0.0
 14
10.0
 24
10.0
 15
10.0
 25
10.0
 16
0.0
 26
0.0
 36
1.0
 17
0.0
 27
0.0
 37
0.0
 40
297.0
 41
1.92798353909465
 42
50.0
 43
0.0
 44
0.0
 50
0.0
 51
0.0
 71
0
 72
100
 73
1
 74
3
 75
1
 76
1
 77
0
 78
0
281
0
 65
1
110
0.0
120
0.0
130
0.0
111
1.0
121
0.0
131
0.0
112
0.0
122
1.0
132
0.0
 79
0
146
0.0
  0
ENDTAB
  0
TABLE
  2
LTYPE
  5
5
100
AcDbSymbolTable
 70
21
  0
LTYPE
  5
14
100
AcDbSymbolTableRecord
100
AcDbLinetypeTableRecord
  2
ByBlock
 70
0
  3

 72
65
 73
0
 40
0.0
  0
LTYPE
  5
15
100
AcDbSymbolTableRecord
100
AcDbLinetypeTableRecord
  2
ByLayer
 70
0
  3

 72
65
 73
0
 40
0.0
  0
LTYPE
  5
16
100
AcDbSymbolTableRecord
100
AcDbLinetypeTableRecord
  2
CONTINUOUS
 70
0
  3
Solid line
 72
65
 73
0
 40
0.0
  0
LTYPE
  5
31
100
AcDbSymbolTableRecord
100
AcDbLinetypeTableRecord
  2
DOT
 70
0
  3
Dot . . . . . . . . . . . . . . . . . . . . . .
 72
65
 73
2
 40
6.3499999999999996
 49
0.0
 74
0
 49
-6.3499999999999996
 74
0
  0
LTYPE
  5
32
100
AcDbSymbolTableRecord
100
AcDbLinetypeTableRecord
  2
DOT2
 70
0
  3
Dot (.5x) .....................................
 72
65
 73
2
 40
3.1749999999999998
 49
0.0
 74
0
 49
-3.1749999999999998
 74
0
  0
LTYPE
  5
33
100
AcDbSymbolTableRecord
100
AcDbLinetypeTableRecord
  2
DOTX2
 70
0
  3
Dot (2x) .  .  .  .  .  .  .  .  .  .  .  .  .
 72
65
 73
2
 40
12.6999999999999993
 49
0.0
 74
0
 49
-12.6999999999999993
 74
0
  0
LTYPE
  5
34
100
AcDbSymbolTableRecord
100
AcDbLinetypeTableRecord
  2
DASHED
 70
0
  3
Dashed __ __ __ __ __ __ __ __ __ __ __ __ __ _
 72
65
 73
2
 40
19.0500000000000007
 49
12.6999999999999993
 74
0
 49
-6.3499999999999996
 74
0
  0
LTYPE
  5
35
100
AcDbSymbolTableRecord
100
AcDbLinetypeTableRecord
  2
DASHED2
 70
0
  3
Dashed (.5x) _ _ _ _ _ _ _ _ _ _ _ _ _ _ _ _ _
 72
65
 73
2
 40
9.5250000000000004
 49
6.3499999999999996
 74
0
 49
-3.1749999999999998
 74
0
  0
LTYPE
  5
36
100
AcDbSymbolTableRecord
100
AcDbLinetypeTableRecord
  2
DASHEDX2
 70
0
  3
Dashed (2x) ____  ____  ____  ____  ____  ___
 72
65
 73
2
 40
38.1000000000000014
 49
25.3999999999999986
 74
0
 49
-12.6999999999999993
 74
0
  0
LTYPE
  5
37
100
AcDbSymbolTableRecord
100
AcDbLinetypeTableRecord
  2
DASHDOT
 70
0
  3
Dash dot __ . __ . __ . __ . __ . __ . __ . __
 72
65
 73
4
 40
25.3999999999999986
 49
12.6999999999999993
 74
0
 49
-6.3499999999999996
 74
0
 49
0.0
 74
0
 49
-6.3499999999999996
 74
0
  0
LTYPE
  5
38
100
AcDbSymbolTableRecord
100
AcDbLinetypeTableRecord
  2
DASHDOT2
 70
0
  3
Dash dot (.5x) _._._._._._._._._._._._._._._.
 72
65
 73
4
 40
12.6999999999999993
 49
6.3499999999999996
 74
0
 49
-3.1749999999999998
 74
0
 49
0.0
 74
0
 49
-3.1749999999999998
 74
0
  0
LTYPE
  5
39
100
AcDbSymbolTableRecord
100
AcDbLinetypeTableRecord
  2
DASHDOTX2
 70
0
  3
Dash dot (2x) ____  .  ____  .  ____  .  ___
 72
65
 73
4
 40
50.7999999999999972
 49
25.3999999999999986
 74
0
 49
-12.6999999999999993
 74
0
 49
0.0
 74
0
 49
-12.6999999999999993
 74
0
  0
LTYPE
  5
3A
100
AcDbSymbolTableRecord
100
AcDbLinetypeTableRecord
  2
DIVIDE
 70
0
  3
Divide ____ . . ____ . . ____ . . ____ . . ____
 72
65
 73
6
 40
31.75
 49
12.6999999999999993
 74
0
 49
-6.3499999999999996
 74
0
 49
0.0
 74
0
 49
-6.3499999999999996
 74
0
 49
0.0
 74
0
 49
-6.3499999999999996
 74
0
  0
LTYPE
  5
3B
100
AcDbSymbolTableRecord
100
AcDbLinetypeTableRecord
  2
DIVIDE2
 70
0
  3
Divide (.5x) __..__..__..__..__..__..__..__.._
 72
65
 73
6
 40
15.875
 49
6.3499999999999996
 74
0
 49
-3.1749999999999998
 74
0
 49
0.0
 74
0
 49
-3.1749999999999998
 74
0
 49
0.0
 74
0
 49
-3.1749999999999998
 74
0
  0
LTYPE
  5
3C
100
AcDbSymbolTableRecord
100
AcDbLinetypeTableRecord
  2
DIVIDEX2
 70
0
  3
Divide (2x) ________  .  .  ________  .  .  _
 72
65
 73
6
 40
63.5
 49
25.3999999999999986
 74
0
 49
-12.6999999999999993
 74
0
 49
0.0
 74
0
 49
-12.6999999999999993
 74
0
 49
0.0
 74
0
 49
-12.6999999999999993
 74
0
  0
LTYPE
  5
3D
100
AcDbSymbolTableRecord
100
AcDbLinetypeTableRecord
  2
CENTER
 70
0
  3
Center ____ _ ____ _ ____ _ ____ _ ____ _ ____
 72
65
 73
4
 40
50.7999999999999972
 49
31.75
 74
0
 49
-6.3499999999999996
 74
0
 49
6.3499999999999996
 74
0
 49
-6.3499999999999996
 74
0
  0
LTYPE
  5
3E
100
AcDbSymbolTableRecord
100
AcDbLinetypeTableRecord
  2
CENTER2
 70
0
  3
Center (.5x) ___ _ ___ _ ___ _ ___ _ ___ _ ___
 72
65
 73
4
 40
28.5749999999999993
 49
19.0500000000000007
 74
0
 49
-3.1749999999999998
 74
0
 49
3.1749999999999998
 74
0
 49
-3.1749999999999998
 74
0
  0
LTYPE
  5
3F
100
AcDbSymbolTableRecord
100
AcDbLinetypeTableRecord
  2
CENTERX2
 70
0
  3
Center (2x) ________  __  ________  __  _____
 72
65
 73
4
 40
101.5999999999999943
 49
63.5
 74
0
 49
-12.6999999999999993
 74
0
 49
12.6999999999999993
 74
0
 49
-12.6999999999999993
 74
0
  0
LTYPE
  5
40
100
AcDbSymbolTableRecord
100
AcDbLinetypeTableRecord
  2
BORDER
 70
0
  3
Border __ __ . __ __ . __ __ . __ __ . __ __ .
 72
65
 73
6
 40
44.4500000000000028
 49
12.6999999999999993
 74
0
 49
-6.3499999999999996
 74
0
 49
12.6999999999999993
 74
0
 49
-6.3499999999999996
 74
0
 49
0.0
 74
0
 49
-6.3499999999999996
 74
0
  0
LTYPE
  5
41
100
AcDbSymbolTableRecord
100
AcDbLinetypeTableRecord
  2
BORDER2
 70
0
  3
Border (.5x) __.__.__.__.__.__.__.__.__.__.__.
 72
65
 73
6
 40
22.2250000000000014
 49
6.3499999999999996
 74
0
 49
-3.1749999999999998
 74
0
 49
6.3499999999999996
 74
0
 49
-3.1749999999999998
 74
0
 49
0.0
 74
0
 49
-3.1749999999999998
 74
0
  0
LTYPE
  5
42
100
AcDbSymbolTableRecord
100
AcDbLinetypeTableRecord
  2
BORDERX2
 70
0
  3
Border (2x) ____  ____  .  ____  ____  .  ___
 72
65
 73
6
 40
88.9000000000000057
 49
25.3999999999999986
 74
0
 49
-12.6999999999999993
 74
0
 49
25.3999999999999986
 74
0
 49
-12.6999999999999993
 74
0
 49
0.0
 74
0
 49
-12.6999999999999993
 74
0
  0
ENDTAB
  0
TABLE
  2
LAYER
  5
2
100
AcDbSymbolTable
 70
3
  0
LAYER
  5
10
100
AcDbSymbolTableRecord
100
AcDbLayerTableRecord
  2
0
 70
0
 62
7
  6
CONTINUOUS
370
0
390
F
  0
LAYER
  5
43
100
AcDbSymbolTableRecord
100
AcDbLayerTableRecord
  2
contour
 70
0
 62
7
  6
CONTINUOUS
370
25
390
F
  0
LAYER
  5
44
100
AcDbSymbolTableRecord
100
AcDbLayerTableRecord
  2
helper
 70
0
 62
7
  6
CONTINUOUS
370
13
390
F
  0
ENDTAB
  0
TABLE
  2
STYLE
  5
3
100
AcDbSymbolTable
 70
1
  0
STYLE
  5
11
100
AcDbSymbolTableRecord
100
AcDbTextStyleTableRecord
  2
Standard
 70
0
 40
0.0
 41
1.0
 50
0.0
 71
0
 42
2.5
  3
txt
  4

  0
ENDTAB
  0
TABLE
  2
VIEW
  5
6
100
AcDbSymbolTable
 70
0
  0
ENDTAB
  0
TABLE
  2
UCS
  5
7
100
AcDbSymbolTable
 70
0
  0
ENDTAB
  0
TABLE
  2
APPID
  5
9
100
AcDbSymbolTable
 70
1
  0
APPID
  5
12
100
AcDbSymbolTableRecord
100
AcDbRegAppTableRecord
  2
ACAD
 70
0
  0
ENDTAB
  0
TABLE
  2
DIMSTYLE
  5
A
100
AcDbSymbolTable
 70
1
100
AcDbDimStyleTable
 71
0
  0
DIMSTYLE
105
27
100
AcDbSymbolTableRecord
100
AcDbDimStyleTableRecord
  2
Standard
 41
2.5
 42
0.625
 43
3.75
 44
1.25
 70
0
 73
0
 74
0
 77
1
 78
8
140
2.5
141
2.5
143
0.03937007874016
147
0.625
171
3
172
1
271
2
272
2
274
3
278
44
283
0
284
8
340
11
  0
ENDTAB
  0
TABLE
  2
BLOCK_RECORD
  5
1
100
AcDbSymbolTable
 70
1
  0
BLOCK_RECORD
  5
1F
100
AcDbSymbolTableRecord
100
AcDbBlockTableRecord
  2
*Model_Space
340
22
  0
BLOCK_RECORD
  5
1B
100
AcDbSymbolTableRecord
100
AcDbBlockTableRecord
  2
*Paper_Space
340
1E
  0
BLOCK_RECORD
  5
23
100
AcDbSymbolTableRecord
100
AcDbBlockTableRecord
  2
*Paper_Space0
340
26
  0
ENDTAB
  0
ENDSEC
  0
SECTION
  2
BLOCKS
  0
BLOCK
  5
20
100
AcDbEntity
  8
0
100
AcDbBlockBegin
  2
*Model_Space
 70
0
 10
0.0
 20
0.0
 30
0.0
  3
*Model_Space
  1

  0
ENDBLK
  5
21
100
AcDbEntity
  8
0
100
AcDbBlockEnd
  0
BLOCK
  5
1C
100
AcDbEntity
 67
1
  8
0
100
AcDbBlockBegin
  2
*Paper_Space
 70
0
 10
0.0
 20
0.0
 30
0.0
  3
*Paper_Space
  1

  0
ENDBLK
  5
1D
100
AcDbEntity
 67
1
  8
0
100
AcDbBlockEnd
  0
BLOCK
  5
24
100
AcDbEntity
  8
0
100
AcDbBlockBegin
  2
*Paper_Space0
 70
0
 10
0.0
 20
0.0
 30
0.0
  3
*Paper_Space0
  1

  0
ENDBLK
  5
25
100
AcDbEntity
  8
0
100
AcDbBlockEnd
  0
ENDSEC
  0
SECTION
  2
ENTITIES
  0
LINE
  5
45
100
AcDbEntity
100
AcDbLine
  8
contour
 62
256
370
-1
  6
ByLayer
 10
51.2499999999999929
 20
126.0
 30
0.0
 11
51.25
 21
104.0
 31
0.0
  0
LINE
  5
46
100
AcDbEntity
100
AcDbLine
  8
contour
 62
256
370
-1
  6
ByLayer
 10
-40.75
 20
103.9999999999999716
 30
0.0
 11
51.25
 21
104.0
 31
0.0
  0
LINE
  5
47
100
AcDbEntity
100
AcDbLine
  8
contour
 62
256
370
-1
  6
ByLayer
 10
-40.7499999999999858
 20
126.0000000000000568
 30
0.0
 11
51.2499999999999929
 21
126.0
 31
0.0
  0
LINE
  5
48
100
AcDbEntity
100
AcDbLine
  8
contour
 62
256
370
-1
  6
ByLayer
 10
-40.7499999999999858
 20
126.0000000000000568
 30
0.0
 11
-40.75
 21
103.9999999999999716
 31
0.0
  0
LINE
  5
49
100
AcDbEntity
100
AcDbLine
  8
helper
 62
256
370
-1
  6
ByLayer
 10
5.2500000000000071
 20
126.0000000000000142
 30
0.0
 11
5.25
 21
104.0000000000000284
 31
0.0
  0
LINE
  5
4A
100
AcDbEntity
100
AcDbLine
  8
helper
 62
256
370
-1
  6
ByLayer
 10
-40.75
 20
115.0000000000000284
 30
0.0
 11
51.2499999999999858
 21
115.0
 31
0.0
  0
CIRCLE
  5
4B
100
AcDbEntity
100
AcDbCircle
  8
contour
 62
256
370
-1
  6
ByLayer
 10
5.2500000000000071
 20
115.0000000000000284
 30
0.0
 40
1.75
  0
LINE
  5
4C
100
AcDbEntity
100
AcDbLine
  8
contour
 62
256
370
-1
  6
ByLayer
 10
51.25
 20
104.0
 30
0.0
 11
51.2499999999999858
 21
82.0
 31
0.0
  0
LINE
  5
4D
100
AcDbEntity
100
AcDbLine
  8
contour
 62
256
370
-1
  6
ByLayer
 10
-40.75
 20
82.0
 30
0.0
 11
51.2499999999999858
 21
82.0
 31
0.0
  0
LINE
  5
4E
100
AcDbEntity
100
AcDbLine
  8
contour
 62
256
370
-1
  6
ByLayer
 10
-40.75
 20
103.9999999999999716
 30
0.0
 11
51.25
 21
104.0
 31
0.0
  0
LINE
  5
4F
100
AcDbEntity
100
AcDbLine
  8
helper
 62
256
370
-1
  6
ByLayer
 10
-40.75
 20
93.0000000000000426
 30
0.0
 11
51.25
 21
93.0
 31
0.0
  0
LINE
  5
50
100
AcDbEntity
100
AcDbLine
  8
helper
 62
256
370
-1
  6
ByLayer
 10
-24.2499999999999858
 20
104.0000000000000426
 30
0.0
 11
-24.25
 21
82.0
 31
0.0
  0
LINE
  5
51
100
AcDbEntity
100
AcDbLine
  8
helper
 62
256
370
-1
  6
ByLayer
 10
21.7500000000000036
 20
104.0000000000000142
 30
0.0
 11
21.7499999999999964
 21
82.0
 31
0.0
  0
CIRCLE
  5
52
100
AcDbEntity
100
AcDbCircle
  8
contour
 62
256
370
-1
  6
ByLayer
 10
-24.25
 20
93.0000000000000426
 30
0.0
 40
5.0
  0
LINE
  5
53
100
AcDbEntity
100
AcDbLine
  8
helper
 62
256
370
-1
  6
ByLayer
 10
-40.75
 20
100.5000000000000426
 30
0.0
 11
51.25
 21
100.5
 31
0.0
  0
MTEXT
  5
54
100
AcDbEntity
100
AcDbMText
  8
contour
 62
256
370
-1
  6
ByLayer
 10
-15.0559999999994147
 20
89.0719999999989795
 30
0.0
 40
4.0
 41
100.0
 71
5
 72
2
  1
10
  7
normallatin1
 50
270.0
 73
1
 44
1.0
  0
MTEXT
  5
55
100
AcDbEntity
100
AcDbMText
  8
contour
 62
256
370
-1
  6
ByLayer
 10
0.1760000000008475
 20
110.4479999999993254
 30
0.0
 40
4.0
 41
100.0
 71
5
 72
2
  1
3.5
  7
normallatin1
 50
270.0
 73
1
 44
1.0
  0
MTEXT
  5
56
100
AcDbEntity
100
AcDbMText
  8
contour
 62
256
370
-1
  6
ByLayer
 10
5.7500000000010374
 20
87.2499999999988347
 30
0.0
 40
3.0
 41
100.0
 71
5
 72
2
  1
Rear\~(wires)
  7
normallatin1
 50
0.0
 73
1
 44
1.0
  0
LINE
  5
57
100
AcDbEntity
100
AcDbLine
  8
helper
 62
256
370
-1
  6
ByLayer
 10
-24.7499999999999929
 20
126.0000000000000284
 30
0.0
 11
-24.75
 21
104.0000000000000426
 31
0.0
  0
LINE
  5
58
100
AcDbEntity
100
AcDbLine
  8
helper
 62
256
370
-1
  6
ByLayer
 10
35.2500000000000071
 20
126.0
 30
0.0
 11
35.25
 21
104.0000000000000142
 31
0.0
  0
CIRCLE
  5
59
100
AcDbEntity
100
AcDbCircle
  8
contour
 62
256
370
-1
  6
ByLayer
 10
-24.7499999999999964
 20
115.0000000000000284
 30
0.0
 40
1.6499999999999999
  0
CIRCLE
  5
5A
100
AcDbEntity
100
AcDbCircle
  8
contour
 62
256
370
-1
  6
ByLayer
 10
35.25
 20
115.0
 30
0.0
 40
1.6499999999999999
  0
MTEXT
  5
5B
100
AcDbEntity
100
AcDbMText
  8
contour
 62
256
370
-1
  6
ByLayer
 10
-29.4571951614509011
 20
110.4295799654391601
 30
0.0
 40
4.0
 41
100.0
 71
5
 72
2
  1
3.3
  7
normallatin1
 50
-90.0
 73
0
 44
1.0
  0
MTEXT
  5
5C
100
AcDbEntity
100
AcDbMText
  8
contour
 62
256
370
-1
  6
ByLayer
 10
30.7136632015127873
 20
110.5691875254460399
 30
0.0
 40
4.0
 41
100.0
 71
5
 72
2
  1
3.3
  7
normallatin1
 50
-90.0
 73
0
 44
1.0
  0
MTEXT
  5
5D
100
AcDbEntity
100
AcDbMText
  8
contour
 62
256
370
-1
  6
ByLayer
 10
-9.9027615196005758
 20
120.0292151200131769
 30
0.0
 40
3.0
 41
100.0
 71
5
 72
2
  1
Front\~(LED)
  7
normallatin1
 50
0.0
 73
1
 44
1.0
  0
LINE
  5
5E
100
AcDbEntity
100
AcDbLine
  8
contour
 62
256
370
-1
  6
ByLayer
 10
143.2499999999999716
 20
125.9999999999999432
 30
0.0
 11
143.2499999999999716
 21
103.9999999999999432
 31
0.0
  0
LINE
  5
5F
100
AcDbEntity
100
AcDbLine
  8
contour
 62
256
370
-1
  6
ByLayer
 10
51.2499999999999716
 20
103.9999999999999147
 30
0.0
 11
143.2499999999999716
 21
103.9999999999999432
 31
0.0
  0
LINE
  5
60
100
AcDbEntity
100
AcDbLine
  8
contour
 62
256
370
-1
  6
ByLayer
 10
51.2499999999999858
 20
126.0
 30
0.0
 11
143.2499999999999716
 21
125.9999999999999432
 31
0.0
  0
LINE
  5
61
100
AcDbEntity
100
AcDbLine
  8
contour
 62
256
370
-1
  6
ByLayer
 10
51.2499999999999858
 20
126.0
 30
0.0
 11
51.2499999999999716
 21
103.9999999999999147
 31
0.0
  0
LINE
  5
62
100
AcDbEntity
100
AcDbLine
  8
helper
 62
256
370
-1
  6
ByLayer
 10
97.2499999999999716
 20
125.9999999999999574
 30
0.0
 11
97.2499999999999716
 21
103.9999999999999716
 31
0.0
  0
LINE
  5
63
100
AcDbEntity
100
AcDbLine
  8
helper
 62
256
370
-1
  6
ByLayer
 10
51.2499999999999716
 20
114.9999999999999716
 30
0.0
 11
143.2499999999999432
 21
114.9999999999999432
 31
0.0
  0
CIRCLE
  5
64
100
AcDbEntity
100
AcDbCircle
  8
contour
 62
256
370
-1
  6
ByLayer
 10
97.2499999999999716
 20
114.9999999999999716
 30
0.0
 40
1.75
  0
LINE
  5
65
100
AcDbEntity
100
AcDbLine
  8
contour
 62
256
370
-1
  6
ByLayer
 10
143.2499999999999716
 20
103.9999999999999432
 30
0.0
 11
143.2499999999999432
 21
81.9999999999999432
 31
0.0
  0
LINE
  5
66
100
AcDbEntity
100
AcDbLine
  8
contour
 62
256
370
-1
  6
ByLayer
 10
51.2499999999999716
 20
81.9999999999999432
 30
0.0
 11
143.2499999999999432
 21
81.9999999999999432
 31
0.0
  0
LINE
  5
67
100
AcDbEntity
100
AcDbLine
  8
contour
 62
256
370
-1
  6
ByLayer
 10
51.2499999999999716
 20
103.9999999999999147
 30
0.0
 11
143.2499999999999716
 21
103.9999999999999432
 31
0.0
  0
LINE
  5
68
100
AcDbEntity
100
AcDbLine
  8
helper
 62
256
370
-1
  6
ByLayer
 10
51.2499999999999716
 20
92.9999999999999858
 30
0.0
 11
143.2499999999999716
 21
92.9999999999999432
 31
0.0
  0
LINE
  5
69
100
AcDbEntity
100
AcDbLine
  8
helper
 62
256
370
-1
  6
ByLayer
 10
67.7499999999999858
 20
103.9999999999999858
 30
0.0
 11
67.7499999999999716
 21
81.9999999999999432
 31
0.0
  0
LINE
  5
6A
100
AcDbEntity
100
AcDbLine
  8
helper
 62
256
370
-1
  6
ByLayer
 10
113.7499999999999716
 20
103.9999999999999574
 30
0.0
 11
113.7499999999999716
 21
81.9999999999999432
 31
0.0
  0
CIRCLE
  5
6B
100
AcDbEntity
100
AcDbCircle
  8
contour
 62
256
370
-1
  6
ByLayer
 10
67.7499999999999716
 20
92.9999999999999858
 30
0.0
 40
5.0
  0
LINE
  5
6C
100
AcDbEntity
100
AcDbLine
  8
helper
 62
256
370
-1
  6
ByLayer
 10
51.2499999999999716
 20
100.4999999999999858
 30
0.0
 11
143.2499999999999716
 21
100.4999999999999432
 31
0.0
  0
MTEXT
  5
6D
100
AcDbEntity
100
AcDbMText
  8
contour
 62
256
370
-1
  6
ByLayer
 10
76.9440000000005568
 20
89.0719999999989227
 30
0.0
 40
4.0
 41
100.0
 71
5
 72
2
  1
10
  7
normallatin1
 50
270.0
 73
1
 44
1.0
  0
MTEXT
  5
6E
100
AcDbEntity
100
AcDbMText
  8
contour
 62
256
370
-1
  6
ByLayer
 10
92.1760000000008262
 20
110.4479999999992685
 30
0.0
 40
4.0
 41
100.0
 71
5
 72
2
  1
3.5
  7
normallatin1
 50
270.0
 73
1
 44
1.0
  0
MTEXT
  5
6F
100
AcDbEntity
100
AcDbMText
  8
contour
 62
256
370
-1
  6
ByLayer
 10
97.750000000001009
 20
87.2499999999987779
 30
0.0
 40
3.0
 41
100.0
 71
5
 72
2
  1
Rear\~(wires)
  7
normallatin1
 50
0.0
 73
1
 44
1.0
  0
LINE
  5
70
100
AcDbEntity
100
AcDbLine
  8
helper
 62
256
370
-1
  6
ByLayer
 10
67.2499999999999716
 20
125.9999999999999716
 30
0.0
 11
67.2499999999999716
 21
103.9999999999999858
 31
0.0
  0
LINE
  5
71
100
AcDbEntity
100
AcDbLine
  8
helper
 62
256
370
-1
  6
ByLayer
 10
127.2499999999999716
 20
125.9999999999999432
 30
0.0
 11
127.2499999999999716
 21
103.9999999999999574
 31
0.0
  0
CIRCLE
  5
72
100
AcDbEntity
100
AcDbCircle
  8
contour
 62
256
370
-1
  6
ByLayer
 10
67.2499999999999716
 20
114.9999999999999716
 30
0.0
 40
1.6499999999999999
  0
CIRCLE
  5
73
100
AcDbEntity
100
AcDbCircle
  8
contour
 62
256
370
-1
  6
ByLayer
 10
127.2499999999999716
 20
114.9999999999999432
 30
0.0
 40
1.6499999999999999
  0
MTEXT
  5
74
100
AcDbEntity
100
AcDbMText
  8
contour
 62
256
370
-1
  6
ByLayer
 10
62.542804838549074
 20
110.4295799654391033
 30
0.0
 40
4.0
 41
100.0
 71
5
 72
2
  1
3.3
  7
normallatin1
 50
-90.0
 73
0
 44
1.0
  0
MTEXT
  5
75
100
AcDbEntity
100
AcDbMText
  8
contour
 62
256
370
-1
  6
ByLayer
 10
122.7136632015127589
 20
110.5691875254459831
 30
0.0
 40
4.0
 41
100.0
 71
5
 72
2
  1
3.3
  7
normallatin1
 50
-90.0
 73
0
 44
1.0
  0
MTEXT
  5
76
100
AcDbEntity
100
AcDbMText
  8
contour
 62
256
370
-1
  6
ByLayer
 10
82.0972384803993975
 20
120.0292151200131201
 30
0.0
 40
3.0
 41
100.0
 71
5
 72
2
  1
Front\~(LED)
  7
normallatin1
 50
0.0
 73
1
 44
1.0
  0
ARC
  5
77
100
AcDbEntity
  8
contour
 62
256
370
-1
  6
ByLayer
100
AcDbCircle
 10
31.5
 20
149.0
 30
0.0
 40
7.5
100
AcDbArc
 50
126.86989764584402
 51
233.13010235415598
  0
ARC
  5
78
100
AcDbEntity
  8
contour
 62
256
370
-1
  6
ByLayer
100
AcDbCircle
 10
-32.0
 20
164.5
 30
0.0
 40
7.5
100
AcDbArc
 50
216.86989764584402
 51
323.1301023541560085
  0
ARC
  5
79
100
AcDbEntity
  8
contour
 62
256
370
-1
  6
ByLayer
100
AcDbCircle
 10
-32.0
 20
133.5
 30
0.0
 40
7.5
100
AcDbArc
 50
36.8698976458440129
 51
143.13010235415598
  0
ARC
  5
7A
100
AcDbEntity
  8
contour
 62
256
370
-1
  6
ByLayer
100
AcDbCircle
 10
19.0
 20
164.5
 30
0.0
 40
7.5
100
AcDbArc
 50
216.86989764584402
 51
323.1301023541560085
  0
ARC
  5
7B
100
AcDbEntity
  8
contour
 62
256
370
-1
  6
ByLayer
100
AcDbCircle
 10
19.0
 20
133.5
 30
0.0
 40
7.5
100
AcDbArc
 50
36.8698976458440129
 51
143.13010235415598
  0
ARC
  5
7C
100
AcDbEntity
  8
contour
 62
256
370
-1
  6
ByLayer
100
AcDbCircle
 10
-44.5
 20
149.0
 30
0.0
 40
7.5
100
AcDbArc
 50
306.8698976458439915
 51
53.1301023541559871
  0
LINE
  5
7D
100
AcDbEntity
100
AcDbLine
  8
helper
 62
256
370
-1
  6
ByLayer
 10
-37.0
 20
149.0
 30
0.0
 11
24.0
 21
149.0
 31
0.0
  0
LINE
  5
7E
100
AcDbEntity
100
AcDbLine
  8
helper
 62
256
370
-1
  6
ByLayer
 10
19.0
 20
157.0
 30
0.0
 11
19.0
 21
141.0
 31
0.0
  0
LINE
  5
7F
100
AcDbEntity
100
AcDbLine
  8
helper
 62
256
370
-1
  6
ByLayer
 10
-32.0
 20
157.0
 30
0.0
 11
-32.0
 21
141.0
 31
0.0
  0
LINE
  5
80
100
AcDbEntity
100
AcDbLine
  8
contour
 62
256
370
-1
  6
ByLayer
 10
27.0
 20
160.0
 30
0.0
 11
27.0
 21
155.0
 31
0.0
  0
LINE
  5
81
100
AcDbEntity
100
AcDbLine
  8
contour
 62
256
370
-1
  6
ByLayer
 10
27.0
 20
143.0
 30
0.0
 11
27.0
 21
138.0
 31
0.0
  0
LINE
  5
82
100
AcDbEntity
100
AcDbLine
  8
contour
 62
256
370
-1
  6
ByLayer
 10
-40.0
 20
143.0
 30
0.0
 11
-40.0
 21
138.0
 31
0.0
  0
LINE
  5
83
100
AcDbEntity
100
AcDbLine
  8
contour
 62
256
370
-1
  6
ByLayer
 10
-40.0
 20
138.0
 30
0.0
 11
-38.0
 21
138.0
 31
0.0
  0
LINE
  5
84
100
AcDbEntity
100
AcDbLine
  8
contour
 62
256
370
-1
  6
ByLayer
 10
-26.0
 20
138.0
 30
0.0
 11
13.0
 21
138.0
 31
0.0
  0
LINE
  5
85
100
AcDbEntity
100
AcDbLine
  8
contour
 62
256
370
-1
  6
ByLayer
 10
25.0
 20
138.0
 30
0.0
 11
27.0
 21
138.0
 31
0.0
  0
MTEXT
  5
86
100
AcDbEntity
100
AcDbMText
  8
contour
 62
256
370
-1
  6
ByLayer
 10
-7.7175670632554514
 20
153.4609652990118036
 30
0.0
 40
4.0
 41
100.0
 71
5
 72
2
  1
Barrel\~template
  7
normallatin1
 50
0.0
 73
1
 44
1.0
  0
LINE
  5
87
100
AcDbEntity
100
AcDbLine
  8
contour
 62
256
370
-1
  6
ByLayer
 10
-40.0
 20
160.0
 30
0.0
 11
-40.0
 21
155.0
 31
0.0
  0
LINE
  5
88
100
AcDbEntity
100
AcDbLine
  8
contour
 62
256
370
-1
  6
ByLayer
 10
-40.0
 20
160.0
 30
0.0
 11
-38.0
 21
160.0
 31
0.0
  0
LINE
  5
89
100
AcDbEntity
100
AcDbLine
  8
contour
 62
256
370
-1
  6
ByLayer
 10
-40.0
 20
138.0
 30
0.0
 11
-38.0
 21
138.0
 31
0.0
  0
LINE
  5
8A
100
AcDbEntity
100
AcDbLine
  8
contour
 62
256
370
-1
  6
ByLayer
 10
-26.0
 20
160.0
 30
0.0
 11
12.9999999999999787
 21
160.0
 31
0.0
  0
LINE
  5
8B
100
AcDbEntity
100
AcDbLine
  8
contour
 62
256
370
-1
  6
ByLayer
 10
-25.9999999999999929
 20
138.0
 30
0.0
 11
13.0
 21
137.9999999999999716
 31
0.0
  0
LINE
  5
8C
100
AcDbEntity
100
AcDbLine
  8
contour
 62
256
370
-1
  6
ByLayer
 10
25.0
 20
138.0
 30
0.0
 11
27.0
 21
138.0
 31
0.0
  0
LINE
  5
8D
100
AcDbEntity
100
AcDbLine
  8
contour
 62
256
370
-1
  6
ByLayer
 10
25.0
 20
160.0
 30
0.0
 11
27.0
 21
160.0
 31
0.0
  0
MTEXT
  5
8E
100
AcDbEntity
100
AcDbMText
  8
contour
 62
256
370
-1
  6
ByLayer
 10
-6.866239578372948
 20
148.219056472843647
 30
0.0
 40
3.0
 41
100.0
 71
2
 72
2
  1
Put\~on\~smallest\~side.\PDo\~not\~glue!
  7
normallatin1
 50
0.0
 73
0
 44
1.0
  0
LINE
  5
8F
100
AcDbEntity
100
AcDbLine
  8
contour
 62
256
370
-1
  6
ByLayer
 10
51.2499999999999716
 20
103.9999999999999147
 30
0.0
 11
51.2499999999999716
 21
81.9999999999999432
 31
0.0
  0
LINE
  5
90
100
AcDbEntity
100
AcDbLine
  8
contour
 62
256
370
-1
  6
ByLayer
 10
-40.75
 20
103.9999999999999716
 30
0.0
 11
-40.75
 21
82.0
 31
0.0
  0
LINE
  5
91
100
AcDbEntity
100
AcDbLine
  8
contour
 62
256
370
-1
  6
ByLayer
 10
-40.75
 20
82.0
 30
0.0
 11
51.2499999999999787
 21
81.9999999999999432
 31
0.0
  0
LINE
  5
92
100
AcDbEntity
100
AcDbLine
  8
contour
 62
256
370
-1
  6
ByLayer
 10
51.2499999999999716
 20
81.9999999999999432
 30
0.0
 11
143.2499999999999432
 21
81.9999999999998863
 31
0.0
  0
CIRCLE
  5
93
100
AcDbEntity
100
AcDbCircle
  8
contour
 62
256
370
-1
  6
ByLayer
 10
21.75
 20
100.5000000000000142
 30
0.0
 40
1.6500000000000001
  0
CIRCLE
  5
94
100
AcDbEntity
100
AcDbCircle
  8
contour
 62
256
370
-1
  6
ByLayer
 10
113.7499999999999716
 20
100.4999999999999574
 30
0.0
 40
1.6500000000000001
  0
MTEXT
  5
95
100
AcDbEntity
100
AcDbMText
  8
contour
 62
256
370
-1
  6
ByLayer
 10
15.6998400000010463
 20
96.9977599999991469
 30
0.0
 40
4.0
 41
100.0
 71
5
 72
2
  1
3.3
  7
normallatin1
 50
270.0
 73
1
 44
1.0
  0
MTEXT
  5
96
100
AcDbEntity
100
AcDbMText
  8
contour
 62
256
370
-1
  6
ByLayer
 10
107.6998400000010179
 20
96.99775999999909
 30
0.0
 40
4.0
 41
100.0
 71
5
 72
2
  1
3.3
  7
normallatin1
 50
270.0
 73
1
 44
1.0
  0
LINE
  5
97
100
AcDbEntity
100
AcDbLine
  8
contour
 62
256
370
-1
  6
ByLayer
 10
51.2499999999999787
 20
81.9999999999999432
 30
0.0
 11
51.2499999999999858
 21
59.9999999999999432
 31
0.0
  0
LINE
  5
98
100
AcDbEntity
100
AcDbLine
  8
contour
 62
256
370
-1
  6
ByLayer
 10
-40.7500000000000142
 20
59.9999999999999147
 30
0.0
 11
51.2499999999999858
 21
59.9999999999999432
 31
0.0
  0
LINE
  5
99
100
AcDbEntity
100
AcDbLine
  8
contour
 62
256
370
-1
  6
ByLayer
 10
-40.75
 20
82.0
 30
0.0
 11
51.2499999999999787
 21
81.9999999999999432
 31
0.0
  0
LINE
  5
9A
100
AcDbEntity
100
AcDbLine
  8
contour
 62
256
370
-1
  6
ByLayer
 10
-40.75
 20
82.0
 30
0.0
 11
-40.7500000000000142
 21
59.9999999999999147
 31
0.0
  0
LINE
  5
9B
100
AcDbEntity
100
AcDbLine
  8
helper
 62
256
370
-1
  6
ByLayer
 10
5.2499999999999929
 20
81.9999999999999574
 30
0.0
 11
5.2499999999999858
 21
59.9999999999999716
 31
0.0
  0
LINE
  5
9C
100
AcDbEntity
100
AcDbLine
  8
helper
 62
256
370
-1
  6
ByLayer
 10
-40.7500000000000142
 20
70.9999999999999716
 30
0.0
 11
51.2499999999999716
 21
70.9999999999999432
 31
0.0
  0
CIRCLE
  5
9D
100
AcDbEntity
100
AcDbCircle
  8
contour
 62
256
370
-1
  6
ByLayer
 10
5.2499999999999929
 20
70.9999999999999716
 30
0.0
 40
1.75
  0
LINE
  5
9E
100
AcDbEntity
100
AcDbLine
  8
contour
 62
256
370
-1
  6
ByLayer
 10
51.2499999999999858
 20
59.9999999999999432
 30
0.0
 11
51.2499999999999716
 21
37.9999999999999432
 31
0.0
  0
LINE
  5
9F
100
AcDbEntity
100
AcDbLine
  8
contour
 62
256
370
-1
  6
ByLayer
 10
-40.7500000000000142
 20
37.9999999999999432
 30
0.0
 11
51.2499999999999716
 21
37.9999999999999432
 31
0.0
  0
LINE
  5
A0
100
AcDbEntity
100
AcDbLine
  8
contour
 62
256
370
-1
  6
ByLayer
 10
-40.7500000000000142
 20
59.9999999999999147
 30
0.0
 11
51.2499999999999858
 21
59.9999999999999432
 31
0.0
  0
LINE
  5
A1
100
AcDbEntity
100
AcDbLine
  8
helper
 62
256
370
-1
  6
ByLayer
 10
-40.7500000000000142
 20
48.9999999999999858
 30
0.0
 11
51.2499999999999858
 21
48.9999999999999432
 31
0.0
  0
LINE
  5
A2
100
AcDbEntity
100
AcDbLine
  8
helper
 62
256
370
-1
  6
ByLayer
 10
-24.25
 20
59.9999999999999858
 30
0.0
 11
-24.2500000000000142
 21
37.9999999999999432
 31
0.0
  0
LINE
  5
A3
100
AcDbEntity
100
AcDbLine
  8
helper
 62
256
370
-1
  6
ByLayer
 10
21.7499999999999893
 20
59.9999999999999574
 30
0.0
 11
21.7499999999999822
 21
37.9999999999999432
 31
0.0
  0
CIRCLE
  5
A4
100
AcDbEntity
100
AcDbCircle
  8
contour
 62
256
370
-1
  6
ByLayer
 10
-24.2500000000000142
 20
48.9999999999999858
 30
0.0
 40
5.0
  0
LINE
  5
A5
100
AcDbEntity
100
AcDbLine
  8
helper
 62
256
370
-1
  6
ByLayer
 10
-40.7500000000000142
 20
56.4999999999999858
 30
0.0
 11
51.2499999999999858
 21
56.4999999999999432
 31
0.0
  0
MTEXT
  5
A6
100
AcDbEntity
100
AcDbMText
  8
contour
 62
256
370
-1
  6
ByLayer
 10
-15.055999999999429
 20
45.0719999999989227
 30
0.0
 40
4.0
 41
100.0
 71
5
 72
2
  1
10
  7
normallatin1
 50
270.0
 73
1
 44
1.0
  0
MTEXT
  5
A7
100
AcDbEntity
100
AcDbMText
  8
contour
 62
256
370
-1
  6
ByLayer
 10
0.1760000000008333
 20
66.4479999999992685
 30
0.0
 40
4.0
 41
100.0
 71
5
 72
2
  1
3.5
  7
normallatin1
 50
270.0
 73
1
 44
1.0
  0
MTEXT
  5
A8
100
AcDbEntity
100
AcDbMText
  8
contour
 62
256
370
-1
  6
ByLayer
 10
5.7500000000010232
 20
43.2499999999987779
 30
0.0
 40
3.0
 41
100.0
 71
5
 72
2
  1
Rear\~(wires)
  7
normallatin1
 50
0.0
 73
1
 44
1.0
  0
LINE
  5
A9
100
AcDbEntity
100
AcDbLine
  8
helper
 62
256
370
-1
  6
ByLayer
 10
-24.7500000000000071
 20
81.9999999999999716
 30
0.0
 11
-24.7500000000000142
 21
59.9999999999999858
 31
0.0
  0
LINE
  5
AA
100
AcDbEntity
100
AcDbLine
  8
helper
 62
256
370
-1
  6
ByLayer
 10
35.2499999999999929
 20
81.9999999999999432
 30
0.0
 11
35.2499999999999858
 21
59.9999999999999574
 31
0.0
  0
CIRCLE
  5
AB
100
AcDbEntity
100
AcDbCircle
  8
contour
 62
256
370
-1
  6
ByLayer
 10
-24.7500000000000107
 20
70.9999999999999716
 30
0.0
 40
1.6499999999999999
  0
CIRCLE
  5
AC
100
AcDbEntity
100
AcDbCircle
  8
contour
 62
256
370
-1
  6
ByLayer
 10
35.2499999999999858
 20
70.9999999999999432
 30
0.0
 40
1.6499999999999999
  0
MTEXT
  5
AD
100
AcDbEntity
100
AcDbMText
  8
contour
 62
256
370
-1
  6
ByLayer
 10
-29.4571951614509153
 20
66.4295799654391033
 30
0.0
 40
4.0
 41
100.0
 71
5
 72
2
  1
3.3
  7
normallatin1
 50
-90.0
 73
0
 44
1.0
  0
MTEXT
  5
AE
100
AcDbEntity
100
AcDbMText
  8
contour
 62
256
370
-1
  6
ByLayer
 10
30.7136632015127731
 20
66.5691875254459831
 30
0.0
 40
4.0
 41
100.0
 71
5
 72
2
  1
3.3
  7
normallatin1
 50
-90.0
 73
0
 44
1.0
  0
MTEXT
  5
AF
100
AcDbEntity
100
AcDbMText
  8
contour
 62
256
370
-1
  6
ByLayer
 10
-9.90276151960059
 20
76.0292151200131201
 30
0.0
 40
3.0
 41
100.0
 71
5
 72
2
  1
Front\~(LED)
  7
normallatin1
 50
0.0
 73
1
 44
1.0
  0
LINE
  5
B0
100
AcDbEntity
100
AcDbLine
  8
contour
 62
256
370
-1
  6
ByLayer
 10
143.2499999999999432
 20
81.9999999999998863
 30
0.0
 11
143.2499999999999432
 21
59.9999999999998863
 31
0.0
  0
LINE
  5
B1
100
AcDbEntity
100
AcDbLine
  8
contour
 62
256
370
-1
  6
ByLayer
 10
51.2499999999999574
 20
59.9999999999998579
 30
0.0
 11
143.2499999999999432
 21
59.9999999999998863
 31
0.0
  0
LINE
  5
B2
100
AcDbEntity
100
AcDbLine
  8
contour
 62
256
370
-1
  6
ByLayer
 10
51.2499999999999716
 20
81.9999999999999432
 30
0.0
 11
143.2499999999999432
 21
81.9999999999998863
 31
0.0
  0
LINE
  5
B3
100
AcDbEntity
100
AcDbLine
  8
contour
 62
256
370
-1
  6
ByLayer
 10
51.2499999999999716
 20
81.9999999999999432
 30
0.0
 11
51.2499999999999574
 21
59.9999999999998579
 31
0.0
  0
LINE
  5
B4
100
AcDbEntity
100
AcDbLine
  8
helper
 62
256
370
-1
  6
ByLayer
 10
97.2499999999999574
 20
81.9999999999999005
 30
0.0
 11
97.2499999999999574
 21
59.9999999999999147
 31
0.0
  0
LINE
  5
B5
100
AcDbEntity
100
AcDbLine
  8
helper
 62
256
370
-1
  6
ByLayer
 10
51.2499999999999574
 20
70.9999999999999147
 30
0.0
 11
143.2499999999999432
 21
70.9999999999998863
 31
0.0
  0
CIRCLE
  5
B6
100
AcDbEntity
100
AcDbCircle
  8
contour
 62
256
370
-1
  6
ByLayer
 10
97.2499999999999574
 20
70.9999999999999147
 30
0.0
 40
1.75
  0
LINE
  5
B7
100
AcDbEntity
100
AcDbLine
  8
contour
 62
256
370
-1
  6
ByLayer
 10
143.2499999999999432
 20
59.9999999999998863
 30
0.0
 11
143.2499999999999432
 21
37.9999999999998863
 31
0.0
  0
LINE
  5
B8
100
AcDbEntity
100
AcDbLine
  8
contour
 62
256
370
-1
  6
ByLayer
 10
51.2499999999999574
 20
37.9999999999998863
 30
0.0
 11
143.2499999999999432
 21
37.9999999999998863
 31
0.0
  0
LINE
  5
B9
100
AcDbEntity
100
AcDbLine
  8
contour
 62
256
370
-1
  6
ByLayer
 10
51.2499999999999574
 20
59.9999999999998579
 30
0.0
 11
143.2499999999999432
 21
59.9999999999998863
 31
0.0
  0
LINE
  5
BA
100
AcDbEntity
100
AcDbLine
  8
helper
 62
256
370
-1
  6
ByLayer
 10
51.2499999999999574
 20
48.9999999999999289
 30
0.0
 11
143.2499999999999432
 21
48.9999999999998863
 31
0.0
  0
LINE
  5
BB
100
AcDbEntity
100
AcDbLine
  8
helper
 62
256
370
-1
  6
ByLayer
 10
67.7499999999999716
 20
59.9999999999999289
 30
0.0
 11
67.7499999999999574
 21
37.9999999999998863
 31
0.0
  0
LINE
  5
BC
100
AcDbEntity
100
AcDbLine
  8
helper
 62
256
370
-1
  6
ByLayer
 10
113.7499999999999574
 20
59.9999999999999005
 30
0.0
 11
113.7499999999999574
 21
37.9999999999998863
 31
0.0
  0
CIRCLE
  5
BD
100
AcDbEntity
100
AcDbCircle
  8
contour
 62
256
370
-1
  6
ByLayer
 10
67.7499999999999574
 20
48.9999999999999289
 30
0.0
 40
5.0
  0
LINE
  5
BE
100
AcDbEntity
100
AcDbLine
  8
helper
 62
256
370
-1
  6
ByLayer
 10
51.2499999999999574
 20
56.4999999999999289
 30
0.0
 11
143.2499999999999432
 21
56.4999999999998863
 31
0.0
  0
MTEXT
  5
BF
100
AcDbEntity
100
AcDbMText
  8
contour
 62
256
370
-1
  6
ByLayer
 10
76.9440000000005426
 20
45.0719999999988659
 30
0.0
 40
4.0
 41
100.0
 71
5
 72
2
  1
10
  7
normallatin1
 50
270.0
 73
1
 44
1.0
  0
MTEXT
  5
C0
100
AcDbEntity
100
AcDbMText
  8
contour
 62
256
370
-1
  6
ByLayer
 10
92.176000000000812
 20
66.4479999999992117
 30
0.0
 40
4.0
 41
100.0
 71
5
 72
2
  1
3.5
  7
normallatin1
 50
270.0
 73
1
 44
1.0
  0
MTEXT
  5
C1
100
AcDbEntity
100
AcDbMText
  8
contour
 62
256
370
-1
  6
ByLayer
 10
97.7500000000009948
 20
43.249999999998721
 30
0.0
 40
3.0
 41
100.0
 71
5
 72
2
  1
Rear\~(wires)
  7
normallatin1
 50
0.0
 73
1
 44
1.0
  0
LINE
  5
C2
100
AcDbEntity
100
AcDbLine
  8
helper
 62
256
370
-1
  6
ByLayer
 10
67.2499999999999574
 20
81.9999999999999147
 30
0.0
 11
67.2499999999999574
 21
59.9999999999999289
 31
0.0
  0
LINE
  5
C3
100
AcDbEntity
100
AcDbLine
  8
helper
 62
256
370
-1
  6
ByLayer
 10
127.2499999999999574
 20
81.9999999999998863
 30
0.0
 11
127.2499999999999574
 21
59.9999999999999005
 31
0.0
  0
CIRCLE
  5
C4
100
AcDbEntity
100
AcDbCircle
  8
contour
 62
256
370
-1
  6
ByLayer
 10
67.2499999999999574
 20
70.9999999999999147
 30
0.0
 40
1.6499999999999999
  0
CIRCLE
  5
C5
100
AcDbEntity
100
AcDbCircle
  8
contour
 62
256
370
-1
  6
ByLayer
 10
127.2499999999999574
 20
70.9999999999998863
 30
0.0
 40
1.6499999999999999
  0
MTEXT
  5
C6
100
AcDbEntity
100
AcDbMText
  8
contour
 62
256
370
-1
  6
ByLayer
 10
62.5428048385490598
 20
66.4295799654390464
 30
0.0
 40
4.0
 41
100.0
 71
5
 72
2
  1
3.3
  7
normallatin1
 50
-90.0
 73
0
 44
1.0
  0
MTEXT
  5
C7
100
AcDbEntity
100
AcDbMText
  8
contour
 62
256
370
-1
  6
ByLayer
 10
122.7136632015127446
 20
66.5691875254459262
 30
0.0
 40
4.0
 41
100.0
 71
5
 72
2
  1
3.3
  7
normallatin1
 50
-90.0
 73
0
 44
1.0
  0
MTEXT
  5
C8
100
AcDbEntity
100
AcDbMText
  8
contour
 62
256
370
-1
  6
ByLayer
 10
82.0972384803993833
 20
76.0292151200130633
 30
0.0
 40
3.0
 41
100.0
 71
5
 72
2
  1
Front\~(LED)
  7
normallatin1
 50
0.0
 73
1
 44
1.0
  0
LINE
  5
C9
100
AcDbEntity
100
AcDbLine
  8
contour
 62
256
370
-1
  6
ByLayer
 10
51.2499999999999574
 20
59.9999999999998579
 30
0.0
 11
51.2499999999999574
 21
37.9999999999998863
 31
0.0
  0
LINE
  5
CA
100
AcDbEntity
100
AcDbLine
  8
contour
 62
256
370
-1
  6
ByLayer
 10
-40.7500000000000142
 20
59.9999999999999147
 30
0.0
 11
-40.7500000000000142
 21
37.9999999999999432
 31
0.0
  0
LINE
  5
CB
100
AcDbEntity
100
AcDbLine
  8
contour
 62
256
370
-1
  6
ByLayer
 10
-40.7500000000000142
 20
37.9999999999999432
 30
0.0
 11
51.2499999999999645
 21
37.9999999999998863
 31
0.0
  0
LINE
  5
CC
100
AcDbEntity
100
AcDbLine
  8
contour
 62
256
370
-1
  6
ByLayer
 10
51.2499999999999574
 20
37.9999999999998863
 30
0.0
 11
143.2499999999999432
 21
37.9999999999998295
 31
0.0
  0
CIRCLE
  5
CD
100
AcDbEntity
100
AcDbCircle
  8
contour
 62
256
370
-1
  6
ByLayer
 10
21.7499999999999858
 20
56.4999999999999574
 30
0.0
 40
1.6500000000000001
  0
CIRCLE
  5
CE
100
AcDbEntity
100
AcDbCircle
  8
contour
 62
256
370
-1
  6
ByLayer
 10
113.7499999999999574
 20
56.4999999999999005
 30
0.0
 40
1.6500000000000001
  0
MTEXT
  5
CF
100
AcDbEntity
100
AcDbMText
  8
contour
 62
256
370
-1
  6
ByLayer
 10
15.6998400000010321
 20
52.99775999999909
 30
0.0
 40
4.0
 41
100.0
 71
5
 72
2
  1
3.3
  7
normallatin1
 50
270.0
 73
1
 44
1.0
  0
MTEXT
  5
D0
100
AcDbEntity
100
AcDbMText
  8
contour
 62
256
370
-1
  6
ByLayer
 10
107.6998400000010037
 20
52.9977599999990332
 30
0.0
 40
4.0
 41
100.0
 71
5
 72
2
  1
3.3
  7
normallatin1
 50
270.0
 73
1
 44
1.0
  0
LINE
  5
D1
100
AcDbEntity
100
AcDbLine
  8
contour
 62
256
370
-1
  6
ByLayer
 10
51.2499999999999645
 20
37.9999999999998863
 30
0.0
 11
51.2499999999999716
 21
15.9999999999998863
 31
0.0
  0
LINE
  5
D2
100
AcDbEntity
100
AcDbLine
  8
contour
 62
256
370
-1
  6
ByLayer
 10
-40.7500000000000284
 20
15.9999999999998579
 30
0.0
 11
51.2499999999999716
 21
15.9999999999998863
 31
0.0
  0
LINE
  5
D3
100
AcDbEntity
100
AcDbLine
  8
contour
 62
256
370
-1
  6
ByLayer
 10
-40.7500000000000142
 20
37.9999999999999432
 30
0.0
 11
51.2499999999999645
 21
37.9999999999998863
 31
0.0
  0
LINE
  5
D4
100
AcDbEntity
100
AcDbLine
  8
contour
 62
256
370
-1
  6
ByLayer
 10
-40.7500000000000142
 20
37.9999999999999432
 30
0.0
 11
-40.7500000000000284
 21
15.9999999999998579
 31
0.0
  0
LINE
  5
D5
100
AcDbEntity
100
AcDbLine
  8
helper
 62
256
370
-1
  6
ByLayer
 10
5.2499999999999787
 20
37.9999999999999005
 30
0.0
 11
5.2499999999999716
 21
15.9999999999999147
 31
0.0
  0
LINE
  5
D6
100
AcDbEntity
100
AcDbLine
  8
helper
 62
256
370
-1
  6
ByLayer
 10
-40.7500000000000284
 20
26.9999999999999147
 30
0.0
 11
51.2499999999999574
 21
26.9999999999998863
 31
0.0
  0
CIRCLE
  5
D7
100
AcDbEntity
100
AcDbCircle
  8
contour
 62
256
370
-1
  6
ByLayer
 10
5.2499999999999787
 20
26.9999999999999147
 30
0.0
 40
1.75
  0
LINE
  5
D8
100
AcDbEntity
100
AcDbLine
  8
contour
 62
256
370
-1
  6
ByLayer
 10
51.2499999999999716
 20
15.9999999999998863
 30
0.0
 11
51.2499999999999574
 21
-6.0000000000001137
 31
0.0
  0
LINE
  5
D9
100
AcDbEntity
100
AcDbLine
  8
contour
 62
256
370
-1
  6
ByLayer
 10
-40.7500000000000284
 20
-6.0000000000001137
 30
0.0
 11
51.2499999999999574
 21
-6.0000000000001137
 31
0.0
  0
LINE
  5
DA
100
AcDbEntity
100
AcDbLine
  8
contour
 62
256
370
-1
  6
ByLayer
 10
-40.7500000000000284
 20
15.9999999999998579
 30
0.0
 11
51.2499999999999716
 21
15.9999999999998863
 31
0.0
  0
LINE
  5
DB
100
AcDbEntity
100
AcDbLine
  8
helper
 62
256
370
-1
  6
ByLayer
 10
-40.7500000000000284
 20
4.9999999999999289
 30
0.0
 11
51.2499999999999716
 21
4.9999999999998863
 31
0.0
  0
LINE
  5
DC
100
AcDbEntity
100
AcDbLine
  8
helper
 62
256
370
-1
  6
ByLayer
 10
-24.2500000000000142
 20
15.9999999999999289
 30
0.0
 11
-24.2500000000000284
 21
-6.0000000000001137
 31
0.0
  0
LINE
  5
DD
100
AcDbEntity
100
AcDbLine
  8
helper
 62
256
370
-1
  6
ByLayer
 10
21.7499999999999751
 20
15.9999999999999005
 30
0.0
 11
21.749999999999968
 21
-6.0000000000001137
 31
0.0
  0
CIRCLE
  5
DE
100
AcDbEntity
100
AcDbCircle
  8
contour
 62
256
370
-1
  6
ByLayer
 10
-24.2500000000000284
 20
4.9999999999999289
 30
0.0
 40
5.0
  0
LINE
  5
DF
100
AcDbEntity
100
AcDbLine
  8
helper
 62
256
370
-1
  6
ByLayer
 10
-40.7500000000000284
 20
12.4999999999999289
 30
0.0
 11
51.2499999999999716
 21
12.4999999999998863
 31
0.0
  0
MTEXT
  5
E0
100
AcDbEntity
100
AcDbMText
  8
contour
 62
256
370
-1
  6
ByLayer
 10
-15.0559999999994432
 20
1.0719999999988659
 30
0.0
 40
4.0
 41
100.0
 71
5
 72
2
  1
10
  7
normallatin1
 50
270.0
 73
1
 44
1.0
  0
MTEXT
  5
E1
100
AcDbEntity
100
AcDbMText
  8
contour
 62
256
370
-1
  6
ByLayer
 10
0.1760000000008191
 20
22.4479999999992117
 30
0.0
 40
4.0
 41
100.0
 71
5
 72
2
  1
3.5
  7
normallatin1
 50
270.0
 73
1
 44
1.0
  0
MTEXT
  5
E2
100
AcDbEntity
100
AcDbMText
  8
contour
 62
256
370
-1
  6
ByLayer
 10
5.750000000001009
 20
-0.750000000001279
 30
0.0
 40
3.0
 41
100.0
 71
5
 72
2
  1
Rear\~(wires)
  7
normallatin1
 50
0.0
 73
1
 44
1.0
  0
LINE
  5
E3
100
AcDbEntity
100
AcDbLine
  8
helper
 62
256
370
-1
  6
ByLayer
 10
-24.7500000000000213
 20
37.9999999999999147
 30
0.0
 11
-24.7500000000000284
 21
15.9999999999999289
 31
0.0
  0
LINE
  5
E4
100
AcDbEntity
100
AcDbLine
  8
helper
 62
256
370
-1
  6
ByLayer
 10
35.2499999999999787
 20
37.9999999999998863
 30
0.0
 11
35.2499999999999716
 21
15.9999999999999005
 31
0.0
  0
CIRCLE
  5
E5
100
AcDbEntity
100
AcDbCircle
  8
contour
 62
256
370
-1
  6
ByLayer
 10
-24.7500000000000249
 20
26.9999999999999147
 30
0.0
 40
1.6499999999999999
  0
CIRCLE
  5
E6
100
AcDbEntity
100
AcDbCircle
  8
contour
 62
256
370
-1
  6
ByLayer
 10
35.2499999999999716
 20
26.9999999999998863
 30
0.0
 40
1.6499999999999999
  0
MTEXT
  5
E7
100
AcDbEntity
100
AcDbMText
  8
contour
 62
256
370
-1
  6
ByLayer
 10
-29.4571951614509295
 20
22.4295799654390464
 30
0.0
 40
4.0
 41
100.0
 71
5
 72
2
  1
3.3
  7
normallatin1
 50
-90.0
 73
0
 44
1.0
  0
MTEXT
  5
E8
100
AcDbEntity
100
AcDbMText
  8
contour
 62
256
370
-1
  6
ByLayer
 10
30.7136632015127589
 20
22.5691875254459262
 30
0.0
 40
4.0
 41
100.0
 71
5
 72
2
  1
3.3
  7
normallatin1
 50
-90.0
 73
0
 44
1.0
  0
MTEXT
  5
E9
100
AcDbEntity
100
AcDbMText
  8
contour
 62
256
370
-1
  6
ByLayer
 10
-9.9027615196006042
 20
32.0292151200130633
 30
0.0
 40
3.0
 41
100.0
 71
5
 72
2
  1
Front\~(LED)
  7
normallatin1
 50
0.0
 73
1
 44
1.0
  0
LINE
  5
EA
100
AcDbEntity
100
AcDbLine
  8
contour
 62
256
370
-1
  6
ByLayer
 10
143.2499999999999432
 20
37.9999999999998295
 30
0.0
 11
143.2499999999999432
 21
15.9999999999998295
 31
0.0
  0
LINE
  5
EB
100
AcDbEntity
100
AcDbLine
  8
contour
 62
256
370
-1
  6
ByLayer
 10
51.2499999999999432
 20
15.999999999999801
 30
0.0
 11
143.2499999999999432
 21
15.9999999999998295
 31
0.0
  0
LINE
  5
EC
100
AcDbEntity
100
AcDbLine
  8
contour
 62
256
370
-1
  6
ByLayer
 10
51.2499999999999574
 20
37.9999999999998863
 30
0.0
 11
143.2499999999999432
 21
37.9999999999998295
 31
0.0
  0
LINE
  5
ED
100
AcDbEntity
100
AcDbLine
  8
contour
 62
256
370
-1
  6
ByLayer
 10
51.2499999999999574
 20
37.9999999999998863
 30
0.0
 11
51.2499999999999432
 21
15.999999999999801
 31
0.0
  0
LINE
  5
EE
100
AcDbEntity
100
AcDbLine
  8
helper
 62
256
370
-1
  6
ByLayer
 10
97.2499999999999432
 20
37.9999999999998437
 30
0.0
 11
97.2499999999999432
 21
15.9999999999998579
 31
0.0
  0
LINE
  5
EF
100
AcDbEntity
100
AcDbLine
  8
helper
 62
256
370
-1
  6
ByLayer
 10
51.2499999999999432
 20
26.9999999999998579
 30
0.0
 11
143.2499999999999147
 21
26.9999999999998295
 31
0.0
  0
CIRCLE
  5
F0
100
AcDbEntity
100
AcDbCircle
  8
contour
 62
256
370
-1
  6
ByLayer
 10
97.2499999999999432
 20
26.9999999999998579
 30
0.0
 40
1.75
  0
LINE
  5
F1
100
AcDbEntity
100
AcDbLine
  8
contour
 62
256
370
-1
  6
ByLayer
 10
143.2499999999999432
 20
15.9999999999998295
 30
0.0
 11
143.2499999999999147
 21
-6.0000000000001705
 31
0.0
  0
LINE
  5
F2
100
AcDbEntity
100
AcDbLine
  8
contour
 62
256
370
-1
  6
ByLayer
 10
51.2499999999999432
 20
-6.0000000000001705
 30
0.0
 11
143.2499999999999147
 21
-6.0000000000001705
 31
0.0
  0
LINE
  5
F3
100
AcDbEntity
100
AcDbLine
  8
contour
 62
256
370
-1
  6
ByLayer
 10
51.2499999999999432
 20
15.999999999999801
 30
0.0
 11
143.2499999999999432
 21
15.9999999999998295
 31
0.0
  0
LINE
  5
F4
100
AcDbEntity
100
AcDbLine
  8
helper
 62
256
370
-1
  6
ByLayer
 10
51.2499999999999432
 20
4.9999999999998721
 30
0.0
 11
143.2499999999999432
 21
4.9999999999998295
 31
0.0
  0
LINE
  5
F5
100
AcDbEntity
100
AcDbLine
  8
helper
 62
256
370
-1
  6
ByLayer
 10
67.7499999999999574
 20
15.9999999999998721
 30
0.0
 11
67.7499999999999432
 21
-6.0000000000001705
 31
0.0
  0
LINE
  5
F6
100
AcDbEntity
100
AcDbLine
  8
helper
 62
256
370
-1
  6
ByLayer
 10
113.7499999999999432
 20
15.9999999999998437
 30
0.0
 11
113.7499999999999432
 21
-6.0000000000001705
 31
0.0
  0
CIRCLE
  5
F7
100
AcDbEntity
100
AcDbCircle
  8
contour
 62
256
370
-1
  6
ByLayer
 10
67.7499999999999432
 20
4.9999999999998721
 30
0.0
 40
5.0
  0
LINE
  5
F8
100
AcDbEntity
100
AcDbLine
  8
helper
 62
256
370
-1
  6
ByLayer
 10
51.2499999999999432
 20
12.4999999999998721
 30
0.0
 11
143.2499999999999432
 21
12.4999999999998295
 31
0.0
  0
MTEXT
  5
F9
100
AcDbEntity
100
AcDbMText
  8
contour
 62
256
370
-1
  6
ByLayer
 10
76.9440000000005284
 20
1.071999999998809
 30
0.0
 40
4.0
 41
100.0
 71
5
 72
2
  1
10
  7
normallatin1
 50
270.0
 73
1
 44
1.0
  0
MTEXT
  5
FA
100
AcDbEntity
100
AcDbMText
  8
contour
 62
256
370
-1
  6
ByLayer
 10
92.1760000000007977
 20
22.4479999999991549
 30
0.0
 40
4.0
 41
100.0
 71
5
 72
2
  1
3.5
  7
normallatin1
 50
270.0
 73
1
 44
1.0
  0
MTEXT
  5
FB
100
AcDbEntity
100
AcDbMText
  8
contour
 62
256
370
-1
  6
ByLayer
 10
97.7500000000009805
 20
-0.7500000000013358
 30
0.0
 40
3.0
 41
100.0
 71
5
 72
2
  1
Rear\~(wires)
  7
normallatin1
 50
0.0
 73
1
 44
1.0
  0
LINE
  5
FC
100
AcDbEntity
100
AcDbLine
  8
helper
 62
256
370
-1
  6
ByLayer
 10
67.2499999999999432
 20
37.9999999999998579
 30
0.0
 11
67.2499999999999432
 21
15.9999999999998721
 31
0.0
  0
LINE
  5
FD
100
AcDbEntity
100
AcDbLine
  8
helper
 62
256
370
-1
  6
ByLayer
 10
127.2499999999999432
 20
37.9999999999998295
 30
0.0
 11
127.2499999999999432
 21
15.9999999999998437
 31
0.0
  0
CIRCLE
  5
FE
100
AcDbEntity
100
AcDbCircle
  8
contour
 62
256
370
-1
  6
ByLayer
 10
67.2499999999999432
 20
26.9999999999998579
 30
0.0
 40
1.6499999999999999
  0
CIRCLE
  5
FF
100
AcDbEntity
100
AcDbCircle
  8
contour
 62
256
370
-1
  6
ByLayer
 10
127.2499999999999432
 20
26.9999999999998295
 30
0.0
 40
1.6499999999999999
  0
MTEXT
  5
100
100
AcDbEntity
100
AcDbMText
  8
contour
 62
256
370
-1
  6
ByLayer
 10
62.5428048385490456
 20
22.4295799654389896
 30
0.0
 40
4.0
 41
100.0
 71
5
 72
2
  1
3.3
  7
normallatin1
 50
-90.0
 73
0
 44
1.0
  0
MTEXT
  5
101
100
AcDbEntity
100
AcDbMText
  8
contour
 62
256
370
-1
  6
ByLayer
 10
122.7136632015127304
 20
22.5691875254458694
 30
0.0
 40
4.0
 41
100.0
 71
5
 72
2
  1
3.3
  7
normallatin1
 50
-90.0
 73
0
 44
1.0
  0
MTEXT
  5
102
100
AcDbEntity
100
AcDbMText
  8
contour
 62
256
370
-1
  6
ByLayer
 10
82.0972384803993691
 20
32.0292151200130064
 30
0.0
 40
3.0
 41
100.0
 71
5
 72
2
  1
Front\~(LED)
  7
normallatin1
 50
0.0
 73
1
 44
1.0
  0
LINE
  5
103
100
AcDbEntity
100
AcDbLine
  8
contour
 62
256
370
-1
  6
ByLayer
 10
51.2499999999999432
 20
15.999999999999801
 30
0.0
 11
51.2499999999999432
 21
-6.0000000000001705
 31
0.0
  0
LINE
  5
104
100
AcDbEntity
100
AcDbLine
  8
contour
 62
256
370
-1
  6
ByLayer
 10
-40.7500000000000284
 20
15.9999999999998579
 30
0.0
 11
-40.7500000000000284
 21
-6.0000000000001137
 31
0.0
  0
LINE
  5
105
100
AcDbEntity
100
AcDbLine
  8
contour
 62
256
370
-1
  6
ByLayer
 10
-40.7500000000000284
 20
-6.0000000000001137
 30
0.0
 11
51.2499999999999503
 21
-6.0000000000001705
 31
0.0
  0
LINE
  5
106
100
AcDbEntity
100
AcDbLine
  8
contour
 62
256
370
-1
  6
ByLayer
 10
51.2499999999999432
 20
-6.0000000000001705
 30
0.0
 11
143.2499999999999147
 21
-6.0000000000002274
 31
0.0
  0
MTEXT
  5
107
100
AcDbEntity
100
AcDbMText
  8
contour
 62
256
370
-1
  6
ByLayer
 10
15.6998400000010179
 20
8.9977599999990332
 30
0.0
 40
4.0
 41
100.0
 71
5
 72
2
  1
3.3
  7
normallatin1
 50
270.0
 73
1
 44
1.0
  0
MTEXT
  5
108
100
AcDbEntity
100
AcDbMText
  8
contour
 62
256
370
-1
  6
ByLayer
 10
107.6998400000009894
 20
8.9977599999989764
 30
0.0
 40
4.0
 41
100.0
 71
5
 72
2
  1
3.3
  7
normallatin1
 50
270.0
 73
1
 44
1.0
  0
LINE
  5
109
100
AcDbEntity
100
AcDbLine
  8
contour
 62
256
370
-1
  6
ByLayer
 10
51.2499999999999503
 20
-6.0000000000001705
 30
0.0
 11
51.2499999999999574
 21
-28.0000000000001705
 31
0.0
  0
LINE
  5
10A
100
AcDbEntity
100
AcDbLine
  8
contour
 62
256
370
-1
  6
ByLayer
 10
-40.7500000000000426
 20
-28.000000000000199
 30
0.0
 11
51.2499999999999574
 21
-28.0000000000001705
 31
0.0
  0
LINE
  5
10B
100
AcDbEntity
100
AcDbLine
  8
contour
 62
256
370
-1
  6
ByLayer
 10
-40.7500000000000284
 20
-6.0000000000001137
 30
0.0
 11
51.2499999999999503
 21
-6.0000000000001705
 31
0.0
  0
LINE
  5
10C
100
AcDbEntity
100
AcDbLine
  8
contour
 62
256
370
-1
  6
ByLayer
 10
-40.7500000000000284
 20
-6.0000000000001137
 30
0.0
 11
-40.7500000000000426
 21
-28.000000000000199
 31
0.0
  0
LINE
  5
10D
100
AcDbEntity
100
AcDbLine
  8
helper
 62
256
370
-1
  6
ByLayer
 10
5.2499999999999645
 20
-6.0000000000001563
 30
0.0
 11
5.2499999999999574
 21
-28.0000000000001421
 31
0.0
  0
LINE
  5
10E
100
AcDbEntity
100
AcDbLine
  8
helper
 62
256
370
-1
  6
ByLayer
 10
-40.7500000000000426
 20
-17.0000000000001421
 30
0.0
 11
51.2499999999999432
 21
-17.0000000000001705
 31
0.0
  0
CIRCLE
  5
10F
100
AcDbEntity
100
AcDbCircle
  8
contour
 62
256
370
-1
  6
ByLayer
 10
5.2499999999999645
 20
-17.0000000000001421
 30
0.0
 40
1.75
  0
LINE
  5
110
100
AcDbEntity
100
AcDbLine
  8
contour
 62
256
370
-1
  6
ByLayer
 10
51.2499999999999574
 20
-28.0000000000001705
 30
0.0
 11
51.2499999999999432
 21
-50.0000000000001705
 31
0.0
  0
LINE
  5
111
100
AcDbEntity
100
AcDbLine
  8
contour
 62
256
370
-1
  6
ByLayer
 10
-40.7500000000000426
 20
-50.0000000000001705
 30
0.0
 11
51.2499999999999432
 21
-50.0000000000001705
 31
0.0
  0
LINE
  5
112
100
AcDbEntity
100
AcDbLine
  8
contour
 62
256
370
-1
  6
ByLayer
 10
-40.7500000000000426
 20
-28.000000000000199
 30
0.0
 11
51.2499999999999574
 21
-28.0000000000001705
 31
0.0
  0
LINE
  5
113
100
AcDbEntity
100
AcDbLine
  8
helper
 62
256
370
-1
  6
ByLayer
 10
-40.7500000000000426
 20
-39.0000000000001279
 30
0.0
 11
51.2499999999999574
 21
-39.0000000000001705
 31
0.0
  0
LINE
  5
114
100
AcDbEntity
100
AcDbLine
  8
helper
 62
256
370
-1
  6
ByLayer
 10
-24.2500000000000284
 20
-28.0000000000001279
 30
0.0
 11
-24.2500000000000426
 21
-50.0000000000001705
 31
0.0
  0
LINE
  5
115
100
AcDbEntity
100
AcDbLine
  8
helper
 62
256
370
-1
  6
ByLayer
 10
21.7499999999999609
 20
-28.0000000000001563
 30
0.0
 11
21.7499999999999538
 21
-50.0000000000001705
 31
0.0
  0
CIRCLE
  5
116
100
AcDbEntity
100
AcDbCircle
  8
contour
 62
256
370
-1
  6
ByLayer
 10
-24.2500000000000426
 20
-39.0000000000001279
 30
0.0
 40
5.0
  0
LINE
  5
117
100
AcDbEntity
100
AcDbLine
  8
helper
 62
256
370
-1
  6
ByLayer
 10
-40.7500000000000426
 20
-31.5000000000001279
 30
0.0
 11
51.2499999999999574
 21
-31.5000000000001705
 31
0.0
  0
MTEXT
  5
118
100
AcDbEntity
100
AcDbMText
  8
contour
 62
256
370
-1
  6
ByLayer
 10
-15.0559999999994574
 20
-42.928000000001191
 30
0.0
 40
4.0
 41
100.0
 71
5
 72
2
  1
10
  7
normallatin1
 50
270.0
 73
1
 44
1.0
  0
MTEXT
  5
119
100
AcDbEntity
100
AcDbMText
  8
contour
 62
256
370
-1
  6
ByLayer
 10
0.1760000000008049
 20
-21.5520000000008451
 30
0.0
 40
4.0
 41
100.0
 71
5
 72
2
  1
3.5
  7
normallatin1
 50
270.0
 73
1
 44
1.0
  0
MTEXT
  5
11A
100
AcDbEntity
100
AcDbMText
  8
contour
 62
256
370
-1
  6
ByLayer
 10
5.7500000000009948
 20
-44.7500000000013358
 30
0.0
 40
3.0
 41
100.0
 71
5
 72
2
  1
Rear\~(wires)
  7
normallatin1
 50
0.0
 73
1
 44
1.0
  0
LINE
  5
11B
100
AcDbEntity
100
AcDbLine
  8
helper
 62
256
370
-1
  6
ByLayer
 10
-24.7500000000000355
 20
-6.0000000000001421
 30
0.0
 11
-24.7500000000000426
 21
-28.0000000000001279
 31
0.0
  0
LINE
  5
11C
100
AcDbEntity
100
AcDbLine
  8
helper
 62
256
370
-1
  6
ByLayer
 10
35.2499999999999645
 20
-6.0000000000001705
 30
0.0
 11
35.2499999999999574
 21
-28.0000000000001563
 31
0.0
  0
CIRCLE
  5
11D
100
AcDbEntity
100
AcDbCircle
  8
contour
 62
256
370
-1
  6
ByLayer
 10
-24.7500000000000391
 20
-17.0000000000001421
 30
0.0
 40
1.6499999999999999
  0
CIRCLE
  5
11E
100
AcDbEntity
100
AcDbCircle
  8
contour
 62
256
370
-1
  6
ByLayer
 10
35.2499999999999574
 20
-17.0000000000001705
 30
0.0
 40
1.6499999999999999
  0
MTEXT
  5
11F
100
AcDbEntity
100
AcDbMText
  8
contour
 62
256
370
-1
  6
ByLayer
 10
-29.4571951614509437
 20
-21.5704200345610104
 30
0.0
 40
4.0
 41
100.0
 71
5
 72
2
  1
3.3
  7
normallatin1
 50
-90.0
 73
0
 44
1.0
  0
MTEXT
  5
120
100
AcDbEntity
100
AcDbMText
  8
contour
 62
256
370
-1
  6
ByLayer
 10
30.7136632015127446
 20
-21.4308124745541306
 30
0.0
 40
4.0
 41
100.0
 71
5
 72
2
  1
3.3
  7
normallatin1
 50
-90.0
 73
0
 44
1.0
  0
MTEXT
  5
121
100
AcDbEntity
100
AcDbMText
  8
contour
 62
256
370
-1
  6
ByLayer
 10
-9.9027615196006185
 20
-11.9707848799869936
 30
0.0
 40
3.0
 41
100.0
 71
5
 72
2
  1
Front\~(LED)
  7
normallatin1
 50
0.0
 73
1
 44
1.0
  0
LINE
  5
122
100
AcDbEntity
100
AcDbLine
  8
contour
 62
256
370
-1
  6
ByLayer
 10
143.2499999999999432
 20
-6.0000000000002274
 30
0.0
 11
143.2499999999999432
 21
-28.0000000000002274
 31
0.0
  0
LINE
  5
123
100
AcDbEntity
100
AcDbLine
  8
contour
 62
256
370
-1
  6
ByLayer
 10
51.2499999999999289
 20
-28.0000000000002558
 30
0.0
 11
143.2499999999999432
 21
-28.0000000000002274
 31
0.0
  0
LINE
  5
124
100
AcDbEntity
100
AcDbLine
  8
contour
 62
256
370
-1
  6
ByLayer
 10
51.2499999999999432
 20
-6.0000000000001705
 30
0.0
 11
143.2499999999999432
 21
-6.0000000000002274
 31
0.0
  0
LINE
  5
125
100
AcDbEntity
100
AcDbLine
  8
contour
 62
256
370
-1
  6
ByLayer
 10
51.2499999999999432
 20
-6.0000000000001705
 30
0.0
 11
51.2499999999999289
 21
-28.0000000000002558
 31
0.0
  0
LINE
  5
126
100
AcDbEntity
100
AcDbLine
  8
helper
 62
256
370
-1
  6
ByLayer
 10
97.2499999999999289
 20
-6.0000000000002132
 30
0.0
 11
97.2499999999999289
 21
-28.000000000000199
 31
0.0
  0
LINE
  5
127
100
AcDbEntity
100
AcDbLine
  8
helper
 62
256
370
-1
  6
ByLayer
 10
51.2499999999999289
 20
-17.000000000000199
 30
0.0
 11
143.2499999999998863
 21
-17.0000000000002274
 31
0.0
  0
CIRCLE
  5
128
100
AcDbEntity
100
AcDbCircle
  8
contour
 62
256
370
-1
  6
ByLayer
 10
97.2499999999999289
 20
-17.000000000000199
 30
0.0
 40
1.75
  0
LINE
  5
129
100
AcDbEntity
100
AcDbLine
  8
contour
 62
256
370
-1
  6
ByLayer
 10
143.2499999999999432
 20
-28.0000000000002274
 30
0.0
 11
143.2499999999998863
 21
-50.0000000000002274
 31
0.0
  0
LINE
  5
12A
100
AcDbEntity
100
AcDbLine
  8
contour
 62
256
370
-1
  6
ByLayer
 10
51.2499999999999289
 20
-50.0000000000002274
 30
0.0
 11
143.2499999999998863
 21
-50.0000000000002274
 31
0.0
  0
LINE
  5
12B
100
AcDbEntity
100
AcDbLine
  8
contour
 62
256
370
-1
  6
ByLayer
 10
51.2499999999999289
 20
-28.0000000000002558
 30
0.0
 11
143.2499999999999432
 21
-28.0000000000002274
 31
0.0
  0
LINE
  5
12C
100
AcDbEntity
100
AcDbLine
  8
helper
 62
256
370
-1
  6
ByLayer
 10
51.2499999999999289
 20
-39.0000000000001847
 30
0.0
 11
143.2499999999999432
 21
-39.0000000000002274
 31
0.0
  0
LINE
  5
12D
100
AcDbEntity
100
AcDbLine
  8
helper
 62
256
370
-1
  6
ByLayer
 10
67.7499999999999432
 20
-28.0000000000001847
 30
0.0
 11
67.7499999999999289
 21
-50.0000000000002274
 31
0.0
  0
LINE
  5
12E
100
AcDbEntity
100
AcDbLine
  8
helper
 62
256
370
-1
  6
ByLayer
 10
113.7499999999999289
 20
-28.0000000000002132
 30
0.0
 11
113.7499999999999289
 21
-50.0000000000002274
 31
0.0
  0
CIRCLE
  5
12F
100
AcDbEntity
100
AcDbCircle
  8
contour
 62
256
370
-1
  6
ByLayer
 10
67.7499999999999289
 20
-39.0000000000001847
 30
0.0
 40
5.0
  0
LINE
  5
130
100
AcDbEntity
100
AcDbLine
  8
helper
 62
256
370
-1
  6
ByLayer
 10
51.2499999999999289
 20
-31.5000000000001847
 30
0.0
 11
143.2499999999999432
 21
-31.5000000000002274
 31
0.0
  0
MTEXT
  5
131
100
AcDbEntity
100
AcDbMText
  8
contour
 62
256
370
-1
  6
ByLayer
 10
76.9440000000005142
 20
-42.9280000000012478
 30
0.0
 40
4.0
 41
100.0
 71
5
 72
2
  1
10
  7
normallatin1
 50
270.0
 73
1
 44
1.0
  0
MTEXT
  5
132
100
AcDbEntity
100
AcDbMText
  8
contour
 62
256
370
-1
  6
ByLayer
 10
92.1760000000007835
 20
-21.552000000000902
 30
0.0
 40
4.0
 41
100.0
 71
5
 72
2
  1
3.5
  7
normallatin1
 50
270.0
 73
1
 44
1.0
  0
MTEXT
  5
133
100
AcDbEntity
100
AcDbMText
  8
contour
 62
256
370
-1
  6
ByLayer
 10
97.7500000000009663
 20
-44.7500000000013927
 30
0.0
 40
3.0
 41
100.0
 71
5
 72
2
  1
Rear\~(wires)
  7
normallatin1
 50
0.0
 73
1
 44
1.0
  0
LINE
  5
134
100
AcDbEntity
100
AcDbLine
  8
helper
 62
256
370
-1
  6
ByLayer
 10
67.2499999999999289
 20
-6.000000000000199
 30
0.0
 11
67.2499999999999289
 21
-28.0000000000001847
 31
0.0
  0
LINE
  5
135
100
AcDbEntity
100
AcDbLine
  8
helper
 62
256
370
-1
  6
ByLayer
 10
127.2499999999999289
 20
-6.0000000000002274
 30
0.0
 11
127.2499999999999289
 21
-28.0000000000002132
 31
0.0
  0
CIRCLE
  5
136
100
AcDbEntity
100
AcDbCircle
  8
contour
 62
256
370
-1
  6
ByLayer
 10
67.2499999999999289
 20
-17.000000000000199
 30
0.0
 40
1.6499999999999999
  0
CIRCLE
  5
137
100
AcDbEntity
100
AcDbCircle
  8
contour
 62
256
370
-1
  6
ByLayer
 10
127.2499999999999289
 20
-17.0000000000002274
 30
0.0
 40
1.6499999999999999
  0
MTEXT
  5
138
100
AcDbEntity
100
AcDbMText
  8
contour
 62
256
370
-1
  6
ByLayer
 10
62.5428048385490314
 20
-21.5704200345610673
 30
0.0
 40
4.0
 41
100.0
 71
5
 72
2
  1
3.3
  7
normallatin1
 50
-90.0
 73
0
 44
1.0
  0
MTEXT
  5
139
100
AcDbEntity
100
AcDbMText
  8
contour
 62
256
370
-1
  6
ByLayer
 10
122.7136632015127162
 20
-21.4308124745541875
 30
0.0
 40
4.0
 41
100.0
 71
5
 72
2
  1
3.3
  7
normallatin1
 50
-90.0
 73
0
 44
1.0
  0
MTEXT
  5
13A
100
AcDbEntity
100
AcDbMText
  8
contour
 62
256
370
-1
  6
ByLayer
 10
82.0972384803993549
 20
-11.9707848799870504
 30
0.0
 40
3.0
 41
100.0
 71
5
 72
2
  1
Front\~(LED)
  7
normallatin1
 50
0.0
 73
1
 44
1.0
  0
LINE
  5
13B
100
AcDbEntity
100
AcDbLine
  8
contour
 62
256
370
-1
  6
ByLayer
 10
51.2499999999999289
 20
-28.0000000000002558
 30
0.0
 11
51.2499999999999289
 21
-50.0000000000002274
 31
0.0
  0
LINE
  5
13C
100
AcDbEntity
100
AcDbLine
  8
contour
 62
256
370
-1
  6
ByLayer
 10
-40.7500000000000426
 20
-28.000000000000199
 30
0.0
 11
-40.7500000000000426
 21
-50.0000000000001705
 31
0.0
  0
LINE
  5
13D
100
AcDbEntity
100
AcDbLine
  8
contour
 62
256
370
-1
  6
ByLayer
 10
-40.7500000000000426
 20
-50.0000000000001705
 30
0.0
 11
51.2499999999999361
 21
-50.0000000000002274
 31
0.0
  0
LINE
  5
13E
100
AcDbEntity
100
AcDbLine
  8
contour
 62
256
370
-1
  6
ByLayer
 10
51.2499999999999289
 20
-50.0000000000002274
 30
0.0
 11
143.2499999999998863
 21
-50.0000000000002842
 31
0.0
  0
CIRCLE
  5
13F
100
AcDbEntity
100
AcDbCircle
  8
contour
 62
256
370
-1
  6
ByLayer
 10
21.7499999999999574
 20
-31.5000000000001563
 30
0.0
 40
1.6500000000000001
  0
CIRCLE
  5
140
100
AcDbEntity
100
AcDbCircle
  8
contour
 62
256
370
-1
  6
ByLayer
 10
113.7499999999999289
 20
-31.5000000000002132
 30
0.0
 40
1.6500000000000001
  0
MTEXT
  5
141
100
AcDbEntity
100
AcDbMText
  8
contour
 62
256
370
-1
  6
ByLayer
 10
15.6998400000010037
 20
-35.0022400000010236
 30
0.0
 40
4.0
 41
100.0
 71
5
 72
2
  1
3.3
  7
normallatin1
 50
270.0
 73
1
 44
1.0
  0
MTEXT
  5
142
100
AcDbEntity
100
AcDbMText
  8
contour
 62
256
370
-1
  6
ByLayer
 10
107.6998400000009752
 20
-35.0022400000010805
 30
0.0
 40
4.0
 41
100.0
 71
5
 72
2
  1
3.3
  7
normallatin1
 50
270.0
 73
1
 44
1.0
  0
LINE
  5
143
100
AcDbEntity
100
AcDbLine
  8
contour
 62
256
370
-1
  6
ByLayer
 10
51.2499999999999361
 20
-50.0000000000002274
 30
0.0
 11
51.2499999999999432
 21
-72.0000000000002274
 31
0.0
  0
LINE
  5
144
100
AcDbEntity
100
AcDbLine
  8
contour
 62
256
370
-1
  6
ByLayer
 10
-40.7500000000000568
 20
-72.0000000000002558
 30
0.0
 11
51.2499999999999432
 21
-72.0000000000002274
 31
0.0
  0
LINE
  5
145
100
AcDbEntity
100
AcDbLine
  8
contour
 62
256
370
-1
  6
ByLayer
 10
-40.7500000000000426
 20
-50.0000000000001705
 30
0.0
 11
51.2499999999999361
 21
-50.0000000000002274
 31
0.0
  0
LINE
  5
146
100
AcDbEntity
100
AcDbLine
  8
contour
 62
256
370
-1
  6
ByLayer
 10
-40.7500000000000426
 20
-50.0000000000001705
 30
0.0
 11
-40.7500000000000568
 21
-72.0000000000002558
 31
0.0
  0
LINE
  5
147
100
AcDbEntity
100
AcDbLine
  8
helper
 62
256
370
-1
  6
ByLayer
 10
5.2499999999999503
 20
-50.0000000000002132
 30
0.0
 11
5.2499999999999432
 21
-72.000000000000199
 31
0.0
  0
LINE
  5
148
100
AcDbEntity
100
AcDbLine
  8
helper
 62
256
370
-1
  6
ByLayer
 10
-40.7500000000000568
 20
-61.000000000000199
 30
0.0
 11
51.2499999999999289
 21
-61.0000000000002274
 31
0.0
  0
CIRCLE
  5
149
100
AcDbEntity
100
AcDbCircle
  8
contour
 62
256
370
-1
  6
ByLayer
 10
5.2499999999999503
 20
-61.000000000000199
 30
0.0
 40
1.75
  0
LINE
  5
14A
100
AcDbEntity
100
AcDbLine
  8
contour
 62
256
370
-1
  6
ByLayer
 10
51.2499999999999432
 20
-72.0000000000002274
 30
0.0
 11
51.2499999999999289
 21
-94.0000000000002274
 31
0.0
  0
LINE
  5
14B
100
AcDbEntity
100
AcDbLine
  8
contour
 62
256
370
-1
  6
ByLayer
 10
-40.7500000000000568
 20
-94.0000000000002274
 30
0.0
 11
51.2499999999999289
 21
-94.0000000000002274
 31
0.0
  0
LINE
  5
14C
100
AcDbEntity
100
AcDbLine
  8
contour
 62
256
370
-1
  6
ByLayer
 10
-40.7500000000000568
 20
-72.0000000000002558
 30
0.0
 11
51.2499999999999432
 21
-72.0000000000002274
 31
0.0
  0
LINE
  5
14D
100
AcDbEntity
100
AcDbLine
  8
helper
 62
256
370
-1
  6
ByLayer
 10
-40.7500000000000568
 20
-83.0000000000001847
 30
0.0
 11
51.2499999999999432
 21
-83.0000000000002274
 31
0.0
  0
LINE
  5
14E
100
AcDbEntity
100
AcDbLine
  8
helper
 62
256
370
-1
  6
ByLayer
 10
-24.2500000000000426
 20
-72.0000000000001847
 30
0.0
 11
-24.2500000000000568
 21
-94.0000000000002274
 31
0.0
  0
LINE
  5
14F
100
AcDbEntity
100
AcDbLine
  8
helper
 62
256
370
-1
  6
ByLayer
 10
21.7499999999999467
 20
-72.0000000000002132
 30
0.0
 11
21.7499999999999396
 21
-94.0000000000002274
 31
0.0
  0
CIRCLE
  5
150
100
AcDbEntity
100
AcDbCircle
  8
contour
 62
256
370
-1
  6
ByLayer
 10
-24.2500000000000568
 20
-83.0000000000001847
 30
0.0
 40
5.0
  0
LINE
  5
151
100
AcDbEntity
100
AcDbLine
  8
helper
 62
256
370
-1
  6
ByLayer
 10
-40.7500000000000568
 20
-75.5000000000001847
 30
0.0
 11
51.2499999999999432
 21
-75.5000000000002274
 31
0.0
  0
MTEXT
  5
152
100
AcDbEntity
100
AcDbMText
  8
contour
 62
256
370
-1
  6
ByLayer
 10
-15.0559999999994716
 20
-86.9280000000012478
 30
0.0
 40
4.0
 41
100.0
 71
5
 72
2
  1
10
  7
normallatin1
 50
270.0
 73
1
 44
1.0
  0
MTEXT
  5
153
100
AcDbEntity
100
AcDbMText
  8
contour
 62
256
370
-1
  6
ByLayer
 10
0.1760000000007907
 20
-65.552000000000902
 30
0.0
 40
4.0
 41
100.0
 71
5
 72
2
  1
3.5
  7
normallatin1
 50
270.0
 73
1
 44
1.0
  0
MTEXT
  5
154
100
AcDbEntity
100
AcDbMText
  8
contour
 62
256
370
-1
  6
ByLayer
 10
5.7500000000009805
 20
-88.7500000000013927
 30
0.0
 40
3.0
 41
100.0
 71
5
 72
2
  1
Rear\~(wires)
  7
normallatin1
 50
0.0
 73
1
 44
1.0
  0
LINE
  5
155
100
AcDbEntity
100
AcDbLine
  8
helper
 62
256
370
-1
  6
ByLayer
 10
-24.7500000000000497
 20
-50.000000000000199
 30
0.0
 11
-24.7500000000000568
 21
-72.0000000000001847
 31
0.0
  0
LINE
  5
156
100
AcDbEntity
100
AcDbLine
  8
helper
 62
256
370
-1
  6
ByLayer
 10
35.2499999999999503
 20
-50.0000000000002274
 30
0.0
 11
35.2499999999999432
 21
-72.0000000000002132
 31
0.0
  0
CIRCLE
  5
157
100
AcDbEntity
100
AcDbCircle
  8
contour
 62
256
370
-1
  6
ByLayer
 10
-24.7500000000000533
 20
-61.000000000000199
 30
0.0
 40
1.6499999999999999
  0
CIRCLE
  5
158
100
AcDbEntity
100
AcDbCircle
  8
contour
 62
256
370
-1
  6
ByLayer
 10
35.2499999999999432
 20
-61.0000000000002274
 30
0.0
 40
1.6499999999999999
  0
MTEXT
  5
159
100
AcDbEntity
100
AcDbMText
  8
contour
 62
256
370
-1
  6
ByLayer
 10
-29.457195161450958
 20
-65.5704200345610673
 30
0.0
 40
4.0
 41
100.0
 71
5
 72
2
  1
3.3
  7
normallatin1
 50
-90.0
 73
0
 44
1.0
  0
MTEXT
  5
15A
100
AcDbEntity
100
AcDbMText
  8
contour
 62
256
370
-1
  6
ByLayer
 10
30.7136632015127304
 20
-65.4308124745541875
 30
0.0
 40
4.0
 41
100.0
 71
5
 72
2
  1
3.3
  7
normallatin1
 50
-90.0
 73
0
 44
1.0
  0
MTEXT
  5
15B
100
AcDbEntity
100
AcDbMText
  8
contour
 62
256
370
-1
  6
ByLayer
 10
-9.9027615196006327
 20
-55.9707848799870504
 30
0.0
 40
3.0
 41
100.0
 71
5
 72
2
  1
Front\~(LED)
  7
normallatin1
 50
0.0
 73
1
 44
1.0
  0
LINE
  5
15C
100
AcDbEntity
100
AcDbLine
  8
contour
 62
256
370
-1
  6
ByLayer
 10
143.2499999999999147
 20
-50.0000000000002842
 30
0.0
 11
143.2499999999999147
 21
-72.0000000000002842
 31
0.0
  0
LINE
  5
15D
100
AcDbEntity
100
AcDbLine
  8
contour
 62
256
370
-1
  6
ByLayer
 10
51.2499999999999147
 20
-72.0000000000003126
 30
0.0
 11
143.2499999999999147
 21
-72.0000000000002842
 31
0.0
  0
LINE
  5
15E
100
AcDbEntity
100
AcDbLine
  8
contour
 62
256
370
-1
  6
ByLayer
 10
51.2499999999999289
 20
-50.0000000000002274
 30
0.0
 11
143.2499999999999147
 21
-50.0000000000002842
 31
0.0
  0
LINE
  5
15F
100
AcDbEntity
100
AcDbLine
  8
contour
 62
256
370
-1
  6
ByLayer
 10
51.2499999999999289
 20
-50.0000000000002274
 30
0.0
 11
51.2499999999999147
 21
-72.0000000000003126
 31
0.0
  0
LINE
  5
160
100
AcDbEntity
100
AcDbLine
  8
helper
 62
256
370
-1
  6
ByLayer
 10
97.2499999999999147
 20
-50.00000000000027
 30
0.0
 11
97.2499999999999147
 21
-72.0000000000002558
 31
0.0
  0
LINE
  5
161
100
AcDbEntity
100
AcDbLine
  8
helper
 62
256
370
-1
  6
ByLayer
 10
51.2499999999999147
 20
-61.0000000000002558
 30
0.0
 11
143.2499999999998863
 21
-61.0000000000002842
 31
0.0
  0
CIRCLE
  5
162
100
AcDbEntity
100
AcDbCircle
  8
contour
 62
256
370
-1
  6
ByLayer
 10
97.2499999999999147
 20
-61.0000000000002558
 30
0.0
 40
1.75
  0
LINE
  5
163
100
AcDbEntity
100
AcDbLine
  8
contour
 62
256
370
-1
  6
ByLayer
 10
143.2499999999999147
 20
-72.0000000000002842
 30
0.0
 11
143.2499999999998863
 21
-94.0000000000002842
 31
0.0
  0
LINE
  5
164
100
AcDbEntity
100
AcDbLine
  8
contour
 62
256
370
-1
  6
ByLayer
 10
51.2499999999999147
 20
-94.0000000000002842
 30
0.0
 11
143.2499999999998863
 21
-94.0000000000002842
 31
0.0
  0
LINE
  5
165
100
AcDbEntity
100
AcDbLine
  8
contour
 62
256
370
-1
  6
ByLayer
 10
51.2499999999999147
 20
-72.0000000000003126
 30
0.0
 11
143.2499999999999147
 21
-72.0000000000002842
 31
0.0
  0
LINE
  5
166
100
AcDbEntity
100
AcDbLine
  8
helper
 62
256
370
-1
  6
ByLayer
 10
51.2499999999999147
 20
-83.0000000000002416
 30
0.0
 11
143.2499999999999147
 21
-83.0000000000002842
 31
0.0
  0
LINE
  5
167
100
AcDbEntity
100
AcDbLine
  8
helper
 62
256
370
-1
  6
ByLayer
 10
67.7499999999999289
 20
-72.0000000000002416
 30
0.0
 11
67.7499999999999147
 21
-94.0000000000002842
 31
0.0
  0
LINE
  5
168
100
AcDbEntity
100
AcDbLine
  8
helper
 62
256
370
-1
  6
ByLayer
 10
113.7499999999999147
 20
-72.00000000000027
 30
0.0
 11
113.7499999999999147
 21
-94.0000000000002842
 31
0.0
  0
CIRCLE
  5
169
100
AcDbEntity
100
AcDbCircle
  8
contour
 62
256
370
-1
  6
ByLayer
 10
67.7499999999999147
 20
-83.0000000000002416
 30
0.0
 40
5.0
  0
LINE
  5
16A
100
AcDbEntity
100
AcDbLine
  8
helper
 62
256
370
-1
  6
ByLayer
 10
51.2499999999999147
 20
-75.5000000000002416
 30
0.0
 11
143.2499999999999147
 21
-75.5000000000002842
 31
0.0
  0
MTEXT
  5
16B
100
AcDbEntity
100
AcDbMText
  8
contour
 62
256
370
-1
  6
ByLayer
 10
76.9440000000005
 20
-86.9280000000013047
 30
0.0
 40
4.0
 41
100.0
 71
5
 72
2
  1
10
  7
normallatin1
 50
270.0
 73
1
 44
1.0
  0
MTEXT
  5
16C
100
AcDbEntity
100
AcDbMText
  8
contour
 62
256
370
-1
  6
ByLayer
 10
92.1760000000007693
 20
-65.5520000000009588
 30
0.0
 40
4.0
 41
100.0
 71
5
 72
2
  1
3.5
  7
normallatin1
 50
270.0
 73
1
 44
1.0
  0
MTEXT
  5
16D
100
AcDbEntity
100
AcDbMText
  8
contour
 62
256
370
-1
  6
ByLayer
 10
97.7500000000009521
 20
-88.7500000000014495
 30
0.0
 40
3.0
 41
100.0
 71
5
 72
2
  1
Rear\~(wires)
  7
normallatin1
 50
0.0
 73
1
 44
1.0
  0
LINE
  5
16E
100
AcDbEntity
100
AcDbLine
  8
helper
 62
256
370
-1
  6
ByLayer
 10
67.2499999999999147
 20
-50.0000000000002558
 30
0.0
 11
67.2499999999999147
 21
-72.0000000000002416
 31
0.0
  0
LINE
  5
16F
100
AcDbEntity
100
AcDbLine
  8
helper
 62
256
370
-1
  6
ByLayer
 10
127.2499999999999147
 20
-50.0000000000002842
 30
0.0
 11
127.2499999999999147
 21
-72.00000000000027
 31
0.0
  0
CIRCLE
  5
170
100
AcDbEntity
100
AcDbCircle
  8
contour
 62
256
370
-1
  6
ByLayer
 10
67.2499999999999147
 20
-61.0000000000002558
 30
0.0
 40
1.6499999999999999
  0
CIRCLE
  5
171
100
AcDbEntity
100
AcDbCircle
  8
contour
 62
256
370
-1
  6
ByLayer
 10
127.2499999999999147
 20
-61.0000000000002842
 30
0.0
 40
1.6499999999999999
  0
MTEXT
  5
172
100
AcDbEntity
100
AcDbMText
  8
contour
 62
256
370
-1
  6
ByLayer
 10
62.5428048385490172
 20
-65.5704200345611241
 30
0.0
 40
4.0
 41
100.0
 71
5
 72
2
  1
3.3
  7
normallatin1
 50
-90.0
 73
0
 44
1.0
  0
MTEXT
  5
173
100
AcDbEntity
100
AcDbMText
  8
contour
 62
256
370
-1
  6
ByLayer
 10
122.713663201512702
 20
-65.4308124745542443
 30
0.0
 40
4.0
 41
100.0
 71
5
 72
2
  1
3.3
  7
normallatin1
 50
-90.0
 73
0
 44
1.0
  0
MTEXT
  5
174
100
AcDbEntity
100
AcDbMText
  8
contour
 62
256
370
-1
  6
ByLayer
 10
82.0972384803993407
 20
-55.9707848799871073
 30
0.0
 40
3.0
 41
100.0
 71
5
 72
2
  1
Front\~(LED)
  7
normallatin1
 50
0.0
 73
1
 44
1.0
  0
LINE
  5
175
100
AcDbEntity
100
AcDbLine
  8
contour
 62
256
370
-1
  6
ByLayer
 10
51.2499999999999147
 20
-72.0000000000003126
 30
0.0
 11
51.2499999999999147
 21
-94.0000000000002842
 31
0.0
  0
LINE
  5
176
100
AcDbEntity
100
AcDbLine
  8
contour
 62
256
370
-1
  6
ByLayer
 10
-40.7500000000000568
 20
-72.0000000000002558
 30
0.0
 11
-40.7500000000000568
 21
-94.0000000000002274
 31
0.0
  0
LINE
  5
177
100
AcDbEntity
100
AcDbLine
  8
contour
 62
256
370
-1
  6
ByLayer
 10
-40.7500000000000568
 20
-94.0000000000002274
 30
0.0
 11
51.2499999999999218
 21
-94.0000000000002842
 31
0.0
  0
LINE
  5
178
100
AcDbEntity
100
AcDbLine
  8
contour
 62
256
370
-1
  6
ByLayer
 10
51.2499999999999147
 20
-94.0000000000002842
 30
0.0
 11
143.2499999999998863
 21
-94.0000000000003411
 31
0.0
  0
CIRCLE
  5
179
100
AcDbEntity
100
AcDbCircle
  8
contour
 62
256
370
-1
  6
ByLayer
 10
21.7499999999999432
 20
-75.5000000000002132
 30
0.0
 40
1.6500000000000001
  0
CIRCLE
  5
17A
100
AcDbEntity
100
AcDbCircle
  8
contour
 62
256
370
-1
  6
ByLayer
 10
113.7499999999999147
 20
-75.50000000000027
 30
0.0
 40
1.6500000000000001
  0
MTEXT
  5
17B
100
AcDbEntity
100
AcDbMText
  8
contour
 62
256
370
-1
  6
ByLayer
 10
15.6998400000009894
 20
-79.0022400000010805
 30
0.0
 40
4.0
 41
100.0
 71
5
 72
2
  1
3.3
  7
normallatin1
 50
270.0
 73
1
 44
1.0
  0
MTEXT
  5
17C
100
AcDbEntity
100
AcDbMText
  8
contour
 62
256
370
-1
  6
ByLayer
 10
107.699840000000961
 20
-79.0022400000011373
 30
0.0
 40
4.0
 41
100.0
 71
5
 72
2
  1
3.3
  7
normallatin1
 50
270.0
 73
1
 44
1.0
  0
MTEXT
  5
17D
100
AcDbEntity
100
AcDbMText
  8
contour
 62
256
370
-1
  6
ByLayer
 10
46.7541849003300456
 20
131.6225547009900367
 30
0.0
 40
3.0
 41
100.0
 71
5
 72
2
  1
PCB\~Transmitter\~template\~for\~10\~boxes
  7
normallatin1
 50
0.0
 73
1
 44
1.0
  0
CIRCLE
  5
17E
100
AcDbEntity
100
AcDbCircle
  8
contour
 62
256
370
-1
  6
ByLayer
 10
21.75
 20
12.5
 30
0.0
 40
1.6499999999999999
  0
CIRCLE
  5
17F
100
AcDbEntity
100
AcDbCircle
  8
contour
 62
256
370
-1
  6
ByLayer
 10
113.75
 20
12.5
 30
0.0
 40
1.6499999999999999
  0
ENDSEC
  0
SECTION
  2
OBJECTS
  0
DICTIONARY
  5
C
100
AcDbDictionary
280
0
281
1
  3
ACAD_GROUP
350
D
  3
ACAD_LAYOUT
350
1A
  3
ACAD_MLINESTYLE
350
17
  3
ACAD_PLOTSETTINGS
350
19
  3
ACAD_PLOTSTYLENAME
350
E
  3
AcDbVariableDictionary
350
180
  0
DICTIONARY
  5
D
100
AcDbDictionary
280
0
281
1
  0
ACDBDICTIONARYWDFLT
  5
E
100
AcDbDictionary
281
1
  3
Normal
350
F
100
AcDbDictionaryWithDefault
340
F
  0
ACDBPLACEHOLDER
  5
F
  0
DICTIONARY
  5
17
100
AcDbDictionary
280
0
281
1
  3
Standard
350
18
  0
MLINESTYLE
  5
18
100
AcDbMlineStyle
  2
STANDARD
 70
0
  3

 62
256
 51
90.0
 52
90.0
 71
2
 49
0.5
 62
256
  6
BYLAYER
 49
-0.5
 62
256
  6
BYLAYER
  0
DICTIONARY
  5
19
100
AcDbDictionary
280
0
281
1
  0
DICTIONARY
  5
1A
100
AcDbDictionary
281
1
  3
Layout1
350
1E
  3
Layout2
350
26
  3
Model
350
22
  0
LAYOUT
  5
1E
100
AcDbPlotSettings
  1

  2
C:\Program Files\AutoCAD 2002\plotters\DWF ePlot (optimized for plotting).pc3
  4

  6

 40
0.0
 41
0.0
 42
0.0
 43
0.0
 44
0.0
 45
0.0
 46
0.0
 47
0.0
 48
0.0
 49
0.0
140
0.0
141
0.0
142
1.0
143
1.0
 70
688
 72
0
 73
0
 74
5
  7

 75
16
147
1.0
148
0.0
149
0.0
100
AcDbLayout
  1
Layout1
 70
1
 71
1
 10
0.0
 20
0.0
 11
420.0
 21
297.0
 12
0.0
 22
0.0
 32
0.0
 14
100000000000000000000.0
 24
100000000000000000000.0
 34
100000000000000000000.0
 15
-100000000000000000000.0
 25
-100000000000000000000.0
 35
-100000000000000000000.0
146
0.0
 13
0.0
 23
0.0
 33
0.0
 16
1.0
 26
0.0
 36
0.0
 17
0.0
 27
1.0
 37
0.0
 76
0
330
1B
  0
LAYOUT
  5
22
100
AcDbPlotSettings
  1

  2
C:\Program Files\AutoCAD 2002\plotters\DWF ePlot (optimized for plotting).pc3
  4

  6

 40
0.0
 41
0.0
 42
0.0
 43
0.0
 44
0.0
 45
0.0
 46
0.0
 47
0.0
 48
0.0
 49
0.0
140
0.0
141
0.0
142
1.0
143
1.0
 70
1712
 72
0
 73
0
 74
0
  7

 75
0
147
1.0
148
0.0
149
0.0
100
AcDbLayout
  1
Model
 70
1
 71
0
 10
0.0
 20
0.0
 11
12.0
 21
9.0
 12
0.0
 22
0.0
 32
0.0
 14
0.0
 24
0.0
 34
0.0
 15
0.0
 25
0.0
 35
0.0
146
0.0
 13
0.0
 23
0.0
 33
0.0
 16
1.0
 26
0.0
 36
0.0
 17
0.0
 27
1.0
 37
0.0
 76
0
330
1F
  0
LAYOUT
  5
26
100
AcDbPlotSettings
  1

  2
C:\Program Files\AutoCAD 2002\plotters\DWF ePlot (optimized for plotting).pc3
  4

  6

 40
0.0
 41
0.0
 42
0.0
 43
0.0
 44
0.0
 45
0.0
 46
0.0
 47
0.0
 48
0.0
 49
0.0
140
0.0
141
0.0
142
1.0
143
1.0
 70
688
 72
0
 73
0
 74
5
  7

 75
16
147
1.0
148
0.0
149
0.0
100
AcDbLayout
  1
Layout2
 70
1
 71
2
 10
0.0
 20
0.0
 11
12.0
 21
9.0
 12
0.0
 22
0.0
 32
0.0
 14
0.0
 24
0.0
 34
0.0
 15
0.0
 25
0.0
 35
0.0
146
0.0
 13
0.0
 23
0.0
 33
0.0
 16
1.0
 26
0.0
 36
0.0
 17
0.0
 27
1.0
 37
0.0
 76
0
330
23
  0
DICTIONARY
  5
180
100
AcDbDictionary
281
1
  3
DIMASSOC
350
182
  3
HIDETEXT
350
181
  0
DICTIONARYVAR
  5
181
100
DictionaryVariables
280
0
  1
2
  0
DICTIONARYVAR
  5
182
100
DictionaryVariables
280
0
  1
1
  0
ENDSEC
  0
EOF
