  0
SECTION
  2
HEADER
  9
$LIMMIN
 10
0.000000
 20
0.000000
  9
$LIMMAX
 10
129.541548
 20
267.137448
  9
$EXTMIN
 10
0.000000
 20
0.000000
  9
$EXTMAX
 10
129.541548
 20
267.137448
  9
$ANGBASE
 50
0.000000
  9
$ANGDIR
 70
0
  9
$INSUNITS
 70
4
  9
$DIMALT
 70
4
  9
$DIMLUNIT
 70
2
  9
$DIMASZ
 40
2.500000
  9
$DIMTXT
 40
2.500000
  9
$DIMRND
 40
0.010000
  9
$DIMEXE
 40
1.250000
  9
$DIMEXO
 40
0.625000
  9
$DIMAUNIT
 70
0
  9
$DIMADEC
 70
2
  9
$GRIDUNIT
 10
0.001000
 20
0.001000
  9
$PLIMMIN
 10
0.000000
 20
0.000000
  9
$PLIMMAX
 10
210.000000
 20
297.000000
  9
$PSVPSCALE
 40
1.000000
  0
ENDSEC
  0
SECTION
  2
TABLES
  0
TABLE
  2
LTYPE
 70
     1
  0
LTYPE
  2
CONTINUOUS
 70
    64
  3
Ausgez
 72
    65
 73
  0
 40
0.000000
  0
ENDTAB
  0
TABLE
  2
LAYER
 70
     1
  0
LAYER
  2
default
 70
    64
 62
7
  6
CONTINUOUS
  0
LAYER
  2
bend
 70
    64
 62
7
  6
CONTINUOUS
  0
LAYER
  2
helper
 70
    64
 62
7
  6
CONTINUOUS
  0
LAYER
  2
contour
 70
    64
 62
7
  6
CONTINUOUS
  0
ENDTAB
  0
ENDSEC
  0
SECTION
  2
BLOCKS
  0
ENDSEC
  0
SECTION
  2
ENTITIES
  0
TEXT
  8
contour
  6
CONTINUOUS
 10
101.152660
 20
262.137448
 40
5.000000
 50
0.000000
 72
1
  7
Normal#0.500000#3.000000
  1
Drilling template for
 39
3
 62
7
  0
TEXT
  8
contour
  6
CONTINUOUS
 10
101.152660
 20
255.137448
 40
5.000000
 50
0.000000
 72
1
  7
Normal#0.500000#3.000000
  1
factory-made Ronja TX
 39
3
 62
7
  0
TEXT
  8
contour
  6
CONTINUOUS
 10
101.152660
 20
248.137448
 40
5.000000
 50
0.000000
 72
1
  7
Normal#0.500000#3.000000
  1
PCB box
 39
3
 62
7
  0
LINE
  8
contour
  6
CONTINUOUS
 10
77.695649
 20
123.200804
 11
77.695649
 21
136.200804
 39
3
 62
7
  0
LINE
  8
contour
  6
CONTINUOUS
 10
77.695649
 20
77.200804
 11
77.695649
 21
90.200804
 39
3
 62
7
  0
LINE
  8
contour
  6
CONTINUOUS
 10
77.695649
 20
227.200804
 11
99.695649
 21
227.200804
 39
3
 62
7
  0
CIRCLE
  8
contour
  6
CONTINUOUS
 10
88.695649
 20
210.700804
 40
5.000000
 39
3
 62
7
  0
CIRCLE
  8
contour
  6
CONTINUOUS
 10
96.195649
 20
164.700804
 40
1.650000
 39
3
 62
7
  0
LINE
  8
contour
  6
CONTINUOUS
 10
99.695649
 20
227.200804
 11
121.695649
 21
227.200804
 39
3
 62
7
  0
CIRCLE
  8
contour
  6
CONTINUOUS
 10
110.695649
 20
181.200804
 40
1.750000
 39
3
 62
7
  0
CIRCLE
  8
contour
  6
CONTINUOUS
 10
110.695649
 20
211.200804
 40
1.650000
 39
3
 62
7
  0
CIRCLE
  8
contour
  6
CONTINUOUS
 10
110.695649
 20
151.200804
 40
1.650000
 39
3
 62
7
  0
CIRCLE
  8
contour
  6
CONTINUOUS
 10
88.695649
 20
127.200804
 40
2.000000
 39
3
 62
7
  0
CIRCLE
  8
contour
  6
CONTINUOUS
 10
110.695649
 20
127.200804
 40
2.000000
 39
3
 62
7
  0
CIRCLE
  8
contour
  6
CONTINUOUS
 10
110.695649
 20
76.200804
 40
2.000000
 39
3
 62
7
  0
CIRCLE
  8
contour
  6
CONTINUOUS
 10
88.695649
 20
76.200804
 40
2.000000
 39
3
 62
7
  0
TEXT
  8
contour
  6
CONTINUOUS
 10
92.483217
 20
118.296208
 40
7.000000
 50
0.000000
 72
1
  7
Normal#0.700000#4.200000
  1
4
 39
3
 62
7
  0
TEXT
  8
contour
  6
CONTINUOUS
 10
91.734863
 20
79.194703
 40
7.000000
 50
0.000000
 72
1
  7
Normal#0.700000#4.200000
  1
4
 39
3
 62
7
  0
TEXT
  8
contour
  6
CONTINUOUS
 10
114.933842
 20
118.296208
 40
7.000000
 50
0.000000
 72
1
  7
Normal#0.700000#4.200000
  1
4
 39
3
 62
7
  0
TEXT
  8
contour
  6
CONTINUOUS
 10
115.120931
 20
78.259260
 40
7.000000
 50
0.000000
 72
1
  7
Normal#0.700000#4.200000
  1
4
 39
3
 62
7
  0
LINE
  8
helper
  6
CONTINUOUS
 10
77.695649
 20
210.700804
 11
99.695649
 21
210.700804
 39
1
 62
7
  0
LINE
  8
helper
  6
CONTINUOUS
 10
77.695649
 20
164.700804
 11
99.695649
 21
164.700804
 39
1
 62
7
  0
LINE
  8
helper
  6
CONTINUOUS
 10
99.695649
 20
211.200804
 11
121.695649
 21
211.200804
 39
1
 62
7
  0
LINE
  8
helper
  6
CONTINUOUS
 10
99.695649
 20
181.200804
 11
121.695649
 21
181.200804
 39
1
 62
7
  0
LINE
  8
helper
  6
CONTINUOUS
 10
99.695649
 20
151.200804
 11
121.695649
 21
151.200804
 39
1
 62
7
  0
LINE
  8
helper
  6
CONTINUOUS
 10
96.195649
 20
163.050804
 11
96.195649
 21
227.200804
 39
1
 62
7
  0
LINE
  8
helper
  6
CONTINUOUS
 10
77.695649
 20
127.200804
 11
99.695649
 21
127.200804
 39
1
 62
7
  0
LINE
  8
helper
  6
CONTINUOUS
 10
99.695649
 20
127.200804
 11
121.695649
 21
127.200804
 39
1
 62
7
  0
LINE
  8
helper
  6
CONTINUOUS
 10
77.695649
 20
76.200804
 11
99.695649
 21
76.200804
 39
1
 62
7
  0
LINE
  8
helper
  6
CONTINUOUS
 10
99.695649
 20
76.200804
 11
121.695649
 21
76.200804
 39
1
 62
7
  0
TEXT
  8
contour
  6
CONTINUOUS
 10
107.012248
 20
203.778523
 40
5.000000
 50
0.000000
 72
1
  7
Normal#0.500000#3.000000
  1
3.3
 39
3
 62
7
  0
TEXT
  8
contour
  6
CONTINUOUS
 10
106.601748
 20
172.991049
 40
5.000000
 50
0.000000
 72
1
  7
Normal#0.500000#3.000000
  1
3.5
 39
3
 62
7
  0
TEXT
  8
contour
  6
CONTINUOUS
 10
106.396498
 20
142.819324
 40
5.000000
 50
0.000000
 72
1
  7
Normal#0.500000#3.000000
  1
3.3
 39
3
 62
7
  0
TEXT
  8
contour
  6
CONTINUOUS
 10
93.465759
 20
155.750063
 40
5.000000
 50
0.000000
 72
1
  7
Normal#0.500000#3.000000
  1
3.3
 39
3
 62
7
  0
LINE
  8
contour
  6
CONTINUOUS
 10
77.695649
 20
135.200804
 11
99.695649
 21
135.200804
 39
3
 62
7
  0
LINE
  8
contour
  6
CONTINUOUS
 10
99.695649
 20
135.200804
 11
121.695649
 21
135.200804
 39
3
 62
7
  0
LINE
  8
contour
  6
CONTINUOUS
 10
77.695649
 20
68.200804
 11
99.695649
 21
68.200804
 39
3
 62
7
  0
LINE
  8
contour
  6
CONTINUOUS
 10
99.695649
 20
68.200804
 11
121.695649
 21
68.200804
 39
3
 62
7
  0
LINE
  8
contour
  6
CONTINUOUS
 10
77.695649
 20
68.200804
 11
77.695649
 21
227.200804
 39
3
 62
7
  0
LINE
  8
helper
  6
CONTINUOUS
 10
88.695649
 20
227.200804
 11
88.695649
 21
68.200804
 39
1
 62
7
  0
LINE
  8
contour
  6
CONTINUOUS
 10
99.695649
 20
68.200804
 11
99.695649
 21
227.200804
 39
3
 62
7
  0
LINE
  8
helper
  6
CONTINUOUS
 10
110.695649
 20
227.200804
 11
110.695649
 21
68.200804
 39
1
 62
7
  0
LINE
  8
contour
  6
CONTINUOUS
 10
121.695649
 20
68.200804
 11
121.695649
 21
227.200804
 39
3
 62
7
  0
TEXT
  8
contour
  6
CONTINUOUS
 10
83.203268
 20
199.263027
 40
5.000000
 50
0.000000
 72
1
  7
Normal#0.500000#3.000000
  1
10
 39
3
 62
7
  0
ENDSEC
  0
EOF
