  0
SECTION
  2
HEADER
  9
$LIMMIN
 10
0.000000
 20
0.000000
  9
$LIMMAX
 10
178.883264
 20
253.513335
  9
$EXTMIN
 10
0.000000
 20
0.000000
  9
$EXTMAX
 10
178.883264
 20
253.513335
  9
$ANGBASE
 50
0.000000
  9
$ANGDIR
 70
0
  9
$INSUNITS
 70
4
  9
$DIMALT
 70
4
  9
$DIMLUNIT
 70
2
  9
$DIMASZ
 40
2.500000
  9
$DIMTXT
 40
2.500000
  9
$DIMRND
 40
0.010000
  9
$DIMEXE
 40
1.250000
  9
$DIMEXO
 40
0.625000
  9
$DIMAUNIT
 70
0
  9
$DIMADEC
 70
2
  9
$GRIDUNIT
 10
0.001000
 20
0.001000
  9
$PLIMMIN
 10
0.000000
 20
0.000000
  9
$PLIMMAX
 10
210.000000
 20
297.000000
  9
$PSVPSCALE
 40
1.000000
  0
ENDSEC
  0
SECTION
  2
TABLES
  0
TABLE
  2
LTYPE
 70
     1
  0
LTYPE
  2
CONTINUOUS
 70
    64
  3
Ausgez
 72
    65
 73
  0
 40
0.000000
  0
ENDTAB
  0
TABLE
  2
LAYER
 70
     1
  0
LAYER
  2
bend
 70
    64
 62
7
  6
CONTINUOUS
  0
LAYER
  2
helper
 70
    64
 62
7
  6
CONTINUOUS
  0
LAYER
  2
contour
 70
    64
 62
7
  6
CONTINUOUS
  0
ENDTAB
  0
ENDSEC
  0
SECTION
  2
BLOCKS
  0
ENDSEC
  0
SECTION
  2
ENTITIES
  0
LINE
  8
bend
  6
DASH
 10
35.883264
 20
219.209111
 11
129.883264
 21
219.209111
 39
2
 62
7
  0
LINE
  8
bend
  6
DASH
 10
35.883264
 20
150.209111
 11
129.883264
 21
150.209111
 39
2
 62
7
  0
LINE
  8
bend
  6
DASH
 10
129.883264
 20
150.209111
 11
129.883264
 21
219.209111
 39
2
 62
7
  0
LINE
  8
bend
  6
DASH
 10
35.883264
 20
150.209111
 11
35.883264
 21
219.209111
 39
2
 62
7
  0
LINE
  8
bend
  6
DASH
 10
38.383264
 20
147.709111
 11
56.883264
 21
147.709111
 39
2
 62
7
  0
LINE
  8
bend
  6
DASH
 10
61.883264
 20
147.709111
 11
80.383264
 21
147.709111
 39
2
 62
7
  0
LINE
  8
bend
  6
DASH
 10
85.383264
 20
147.709111
 11
103.883264
 21
147.709111
 39
2
 62
7
  0
LINE
  8
bend
  6
DASH
 10
108.883264
 20
147.709111
 11
127.383264
 21
147.709111
 39
2
 62
7
  0
LINE
  8
bend
  6
DASH
 10
38.383264
 20
221.709111
 11
56.883264
 21
221.709111
 39
2
 62
7
  0
LINE
  8
bend
  6
DASH
 10
61.883264
 20
221.709111
 11
80.383264
 21
221.709111
 39
2
 62
7
  0
LINE
  8
bend
  6
DASH
 10
85.383264
 20
221.709111
 11
103.883264
 21
221.709111
 39
2
 62
7
  0
LINE
  8
bend
  6
DASH
 10
108.883264
 20
221.709111
 11
127.383264
 21
221.709111
 39
2
 62
7
  0
LINE
  8
bend
  6
DASH
 10
33.383264
 20
198.709111
 11
33.383264
 21
216.709111
 39
2
 62
7
  0
LINE
  8
bend
  6
DASH
 10
33.383264
 20
175.709111
 11
33.383264
 21
193.709111
 39
2
 62
7
  0
LINE
  8
bend
  6
DASH
 10
33.383264
 20
152.709111
 11
33.383264
 21
170.709111
 39
2
 62
7
  0
LINE
  8
bend
  6
DASH
 10
132.383264
 20
198.709111
 11
132.383264
 21
216.709111
 39
2
 62
7
  0
LINE
  8
bend
  6
DASH
 10
132.383264
 20
175.709111
 11
132.383264
 21
193.709111
 39
2
 62
7
  0
LINE
  8
bend
  6
DASH
 10
132.383264
 20
152.709111
 11
132.383264
 21
170.709111
 39
2
 62
7
  0
LINE
  8
bend
  6
DASH
 10
35.883264
 20
140.209111
 11
129.883264
 21
140.209111
 39
2
 62
7
  0
LINE
  8
bend
  6
DASH
 10
35.883264
 20
71.209111
 11
129.883264
 21
71.209111
 39
2
 62
7
  0
LINE
  8
bend
  6
DASH
 10
129.883264
 20
71.209111
 11
129.883264
 21
140.209111
 39
2
 62
7
  0
LINE
  8
bend
  6
DASH
 10
35.883264
 20
71.209111
 11
35.883264
 21
140.209111
 39
2
 62
7
  0
LINE
  8
bend
  6
DASH
 10
38.383264
 20
68.709111
 11
56.883264
 21
68.709111
 39
2
 62
7
  0
LINE
  8
bend
  6
DASH
 10
61.883264
 20
68.709111
 11
80.383264
 21
68.709111
 39
2
 62
7
  0
LINE
  8
bend
  6
DASH
 10
85.383264
 20
68.709111
 11
103.883264
 21
68.709111
 39
2
 62
7
  0
LINE
  8
bend
  6
DASH
 10
108.883264
 20
68.709111
 11
127.383264
 21
68.709111
 39
2
 62
7
  0
LINE
  8
bend
  6
DASH
 10
38.383264
 20
142.709111
 11
56.883264
 21
142.709111
 39
2
 62
7
  0
LINE
  8
bend
  6
DASH
 10
61.883264
 20
142.709111
 11
80.383264
 21
142.709111
 39
2
 62
7
  0
LINE
  8
bend
  6
DASH
 10
33.383264
 20
119.709111
 11
33.383264
 21
137.709111
 39
2
 62
7
  0
LINE
  8
bend
  6
DASH
 10
33.383264
 20
96.709111
 11
33.383264
 21
114.709111
 39
2
 62
7
  0
LINE
  8
bend
  6
DASH
 10
33.383264
 20
73.709111
 11
33.383264
 21
91.709111
 39
2
 62
7
  0
LINE
  8
bend
  6
DASH
 10
132.383264
 20
119.709111
 11
132.383264
 21
137.709111
 39
2
 62
7
  0
LINE
  8
bend
  6
DASH
 10
132.383264
 20
96.709111
 11
132.383264
 21
114.709111
 39
2
 62
7
  0
LINE
  8
bend
  6
DASH
 10
132.383264
 20
73.709111
 11
132.383264
 21
91.709111
 39
2
 62
7
  0
LINE
  8
bend
  6
DASH
 10
117.133264
 20
142.709111
 11
127.383264
 21
142.709111
 39
2
 62
7
  0
LINE
  8
bend
  6
DASH
 10
104.383264
 20
142.709111
 11
112.133264
 21
142.709111
 39
2
 62
7
  0
LINE
  8
bend
  6
DASH
 10
85.383264
 20
142.709111
 11
94.383264
 21
142.709111
 39
2
 62
7
  0
LINE
  8
contour
  6
CONTINUOUS
 10
124.883264
 20
145.209111
 11
134.883264
 21
155.209111
 39
3
 62
7
  0
LINE
  8
contour
  6
CONTINUOUS
 10
30.883264
 20
155.209111
 11
40.883264
 21
145.209111
 39
3
 62
7
  0
LINE
  8
contour
  6
CONTINUOUS
 10
30.883264
 20
214.209111
 11
40.883264
 21
224.209111
 39
3
 62
7
  0
LINE
  8
contour
  6
CONTINUOUS
 10
124.883264
 20
224.209111
 11
134.883264
 21
214.209111
 39
3
 62
7
  0
LINE
  8
contour
  6
CONTINUOUS
 10
111.383264
 20
145.209111
 11
124.883264
 21
145.209111
 39
3
 62
7
  0
LINE
  8
contour
  6
CONTINUOUS
 10
101.383264
 20
145.209111
 11
106.383264
 21
150.209111
 39
3
 62
7
  0
LINE
  8
contour
  6
CONTINUOUS
 10
106.383264
 20
150.209111
 11
111.383264
 21
145.209111
 39
3
 62
7
  0
LINE
  8
contour
  6
CONTINUOUS
 10
82.883264
 20
150.209111
 11
87.883264
 21
145.209111
 39
3
 62
7
  0
LINE
  8
contour
  6
CONTINUOUS
 10
77.883264
 20
145.209111
 11
82.883264
 21
150.209111
 39
3
 62
7
  0
LINE
  8
contour
  6
CONTINUOUS
 10
59.383264
 20
150.209111
 11
64.383264
 21
145.209111
 39
3
 62
7
  0
LINE
  8
contour
  6
CONTINUOUS
 10
54.383264
 20
145.209111
 11
59.383264
 21
150.209111
 39
3
 62
7
  0
LINE
  8
contour
  6
CONTINUOUS
 10
40.883264
 20
224.209111
 11
54.383264
 21
224.209111
 39
3
 62
7
  0
LINE
  8
contour
  6
CONTINUOUS
 10
54.383264
 20
224.209111
 11
59.383264
 21
219.209111
 39
3
 62
7
  0
LINE
  8
contour
  6
CONTINUOUS
 10
59.383264
 20
219.209111
 11
64.383264
 21
224.209111
 39
3
 62
7
  0
LINE
  8
contour
  6
CONTINUOUS
 10
64.383264
 20
224.209111
 11
77.883264
 21
224.209111
 39
3
 62
7
  0
LINE
  8
contour
  6
CONTINUOUS
 10
77.883264
 20
224.209111
 11
82.883264
 21
219.209111
 39
3
 62
7
  0
LINE
  8
contour
  6
CONTINUOUS
 10
82.883264
 20
219.209111
 11
87.883264
 21
224.209111
 39
3
 62
7
  0
LINE
  8
contour
  6
CONTINUOUS
 10
101.383264
 20
224.209111
 11
106.383264
 21
219.209111
 39
3
 62
7
  0
LINE
  8
contour
  6
CONTINUOUS
 10
106.383264
 20
219.209111
 11
111.383264
 21
224.209111
 39
3
 62
7
  0
LINE
  8
contour
  6
CONTINUOUS
 10
30.883264
 20
201.209111
 11
30.883264
 21
214.209111
 39
3
 62
7
  0
LINE
  8
contour
  6
CONTINUOUS
 10
30.883264
 20
201.209111
 11
35.883264
 21
196.209111
 39
3
 62
7
  0
LINE
  8
contour
  6
CONTINUOUS
 10
30.883264
 20
191.209111
 11
35.883264
 21
196.209111
 39
3
 62
7
  0
LINE
  8
contour
  6
CONTINUOUS
 10
30.883264
 20
178.209111
 11
30.883264
 21
191.209111
 39
3
 62
7
  0
LINE
  8
contour
  6
CONTINUOUS
 10
30.883264
 20
178.209111
 11
35.883264
 21
173.209111
 39
3
 62
7
  0
LINE
  8
contour
  6
CONTINUOUS
 10
30.883264
 20
155.209111
 11
30.883264
 21
168.209111
 39
3
 62
7
  0
LINE
  8
contour
  6
CONTINUOUS
 10
30.883264
 20
168.209111
 11
35.883264
 21
173.209111
 39
3
 62
7
  0
LINE
  8
contour
  6
CONTINUOUS
 10
134.883264
 20
201.209111
 11
134.883264
 21
214.209111
 39
3
 62
7
  0
LINE
  8
contour
  6
CONTINUOUS
 10
129.883264
 20
196.209111
 11
134.883264
 21
201.209111
 39
3
 62
7
  0
LINE
  8
contour
  6
CONTINUOUS
 10
129.883264
 20
196.209111
 11
134.883264
 21
191.209111
 39
3
 62
7
  0
LINE
  8
contour
  6
CONTINUOUS
 10
134.883264
 20
178.209111
 11
134.883264
 21
191.209111
 39
3
 62
7
  0
LINE
  8
contour
  6
CONTINUOUS
 10
129.883264
 20
173.209111
 11
134.883264
 21
178.209111
 39
3
 62
7
  0
LINE
  8
contour
  6
CONTINUOUS
 10
134.883264
 20
155.209111
 11
134.883264
 21
168.209111
 39
3
 62
7
  0
LINE
  8
contour
  6
CONTINUOUS
 10
129.883264
 20
173.209111
 11
134.883264
 21
168.209111
 39
3
 62
7
  0
LINE
  8
contour
  6
CONTINUOUS
 10
101.383264
 20
145.209111
 11
87.883264
 21
145.209111
 39
3
 62
7
  0
LINE
  8
contour
  6
CONTINUOUS
 10
77.883264
 20
145.209111
 11
64.383264
 21
145.209111
 39
3
 62
7
  0
LINE
  8
contour
  6
CONTINUOUS
 10
54.383264
 20
145.209111
 11
40.883264
 21
145.209111
 39
3
 62
7
  0
LINE
  8
contour
  6
CONTINUOUS
 10
111.383264
 20
224.209111
 11
124.883264
 21
224.209111
 39
3
 62
7
  0
LINE
  8
contour
  6
CONTINUOUS
 10
101.383264
 20
224.209111
 11
87.883264
 21
224.209111
 39
3
 62
7
  0
LINE
  8
contour
  6
CONTINUOUS
 10
87.883264
 20
66.209111
 11
101.383264
 21
66.209111
 39
3
 62
7
  0
LINE
  8
contour
  6
CONTINUOUS
 10
111.383264
 20
66.209111
 11
124.883264
 21
66.209111
 39
3
 62
7
  0
LINE
  8
contour
  6
CONTINUOUS
 10
124.883264
 20
66.209111
 11
134.883264
 21
76.209111
 39
3
 62
7
  0
LINE
  8
contour
  6
CONTINUOUS
 10
30.883264
 20
76.209111
 11
40.883264
 21
66.209111
 39
3
 62
7
  0
LINE
  8
contour
  6
CONTINUOUS
 10
30.883264
 20
135.209111
 11
40.883264
 21
145.209111
 39
3
 62
7
  0
LINE
  8
contour
  6
CONTINUOUS
 10
124.883264
 20
145.209111
 11
134.883264
 21
135.209111
 39
3
 62
7
  0
LINE
  8
contour
  6
CONTINUOUS
 10
101.383264
 20
66.209111
 11
106.383264
 21
71.209111
 39
3
 62
7
  0
LINE
  8
contour
  6
CONTINUOUS
 10
106.383264
 20
71.209111
 11
111.383264
 21
66.209111
 39
3
 62
7
  0
LINE
  8
contour
  6
CONTINUOUS
 10
82.883264
 20
71.209111
 11
87.883264
 21
66.209111
 39
3
 62
7
  0
LINE
  8
contour
  6
CONTINUOUS
 10
77.883264
 20
66.209111
 11
82.883264
 21
71.209111
 39
3
 62
7
  0
LINE
  8
contour
  6
CONTINUOUS
 10
59.383264
 20
71.209111
 11
64.383264
 21
66.209111
 39
3
 62
7
  0
LINE
  8
contour
  6
CONTINUOUS
 10
54.383264
 20
66.209111
 11
59.383264
 21
71.209111
 39
3
 62
7
  0
LINE
  8
contour
  6
CONTINUOUS
 10
40.883264
 20
145.209111
 11
54.383264
 21
145.209111
 39
3
 62
7
  0
LINE
  8
contour
  6
CONTINUOUS
 10
54.383264
 20
145.209111
 11
59.383264
 21
140.209111
 39
3
 62
7
  0
LINE
  8
contour
  6
CONTINUOUS
 10
59.383264
 20
140.209111
 11
64.383264
 21
145.209111
 39
3
 62
7
  0
LINE
  8
contour
  6
CONTINUOUS
 10
64.383264
 20
145.209111
 11
77.883264
 21
145.209111
 39
3
 62
7
  0
LINE
  8
contour
  6
CONTINUOUS
 10
77.883264
 20
145.209111
 11
82.883264
 21
140.209111
 39
3
 62
7
  0
LINE
  8
contour
  6
CONTINUOUS
 10
82.883264
 20
140.209111
 11
87.883264
 21
145.209111
 39
3
 62
7
  0
LINE
  8
contour
  6
CONTINUOUS
 10
30.883264
 20
122.209111
 11
30.883264
 21
135.209111
 39
3
 62
7
  0
LINE
  8
contour
  6
CONTINUOUS
 10
30.883264
 20
122.209111
 11
35.883264
 21
117.209111
 39
3
 62
7
  0
LINE
  8
contour
  6
CONTINUOUS
 10
30.883264
 20
112.209111
 11
35.883264
 21
117.209111
 39
3
 62
7
  0
LINE
  8
contour
  6
CONTINUOUS
 10
30.883264
 20
99.209111
 11
30.883264
 21
112.209111
 39
3
 62
7
  0
LINE
  8
contour
  6
CONTINUOUS
 10
30.883264
 20
99.209111
 11
35.883264
 21
94.209111
 39
3
 62
7
  0
LINE
  8
contour
  6
CONTINUOUS
 10
30.883264
 20
76.209111
 11
30.883264
 21
89.209111
 39
3
 62
7
  0
LINE
  8
contour
  6
CONTINUOUS
 10
30.883264
 20
89.209111
 11
35.883264
 21
94.209111
 39
3
 62
7
  0
LINE
  8
contour
  6
CONTINUOUS
 10
134.883264
 20
122.209111
 11
134.883264
 21
135.209111
 39
3
 62
7
  0
LINE
  8
contour
  6
CONTINUOUS
 10
129.883264
 20
117.209111
 11
134.883264
 21
122.209111
 39
3
 62
7
  0
LINE
  8
contour
  6
CONTINUOUS
 10
129.883264
 20
117.209111
 11
134.883264
 21
112.209111
 39
3
 62
7
  0
LINE
  8
contour
  6
CONTINUOUS
 10
134.883264
 20
99.209111
 11
134.883264
 21
112.209111
 39
3
 62
7
  0
LINE
  8
contour
  6
CONTINUOUS
 10
129.883264
 20
94.209111
 11
134.883264
 21
99.209111
 39
3
 62
7
  0
LINE
  8
contour
  6
CONTINUOUS
 10
134.883264
 20
76.209111
 11
134.883264
 21
89.209111
 39
3
 62
7
  0
LINE
  8
contour
  6
CONTINUOUS
 10
129.883264
 20
94.209111
 11
134.883264
 21
89.209111
 39
3
 62
7
  0
LINE
  8
contour
  6
CONTINUOUS
 10
77.883264
 20
66.209111
 11
64.383264
 21
66.209111
 39
3
 62
7
  0
LINE
  8
contour
  6
CONTINUOUS
 10
54.383264
 20
66.209111
 11
40.883264
 21
66.209111
 39
3
 62
7
  0
LINE
  8
contour
  6
CONTINUOUS
 10
114.633264
 20
140.209111
 11
119.633264
 21
145.209111
 39
3
 62
7
  0
LINE
  8
contour
  6
CONTINUOUS
 10
104.383264
 20
145.209111
 11
109.633264
 21
145.209111
 39
3
 62
7
  0
LINE
  8
contour
  6
CONTINUOUS
 10
109.633264
 20
145.209111
 11
114.633264
 21
140.209111
 39
3
 62
7
  0
LINE
  8
contour
  6
CONTINUOUS
 10
119.633264
 20
145.209111
 11
124.883264
 21
145.209111
 39
3
 62
7
  0
LINE
  8
contour
  6
CONTINUOUS
 10
104.383264
 20
140.209111
 11
104.383264
 21
145.209111
 39
3
 62
7
  0
LINE
  8
contour
  6
CONTINUOUS
 10
87.883264
 20
145.209111
 11
94.383264
 21
145.209111
 39
3
 62
7
  0
LINE
  8
contour
  6
CONTINUOUS
 10
94.383264
 20
140.209111
 11
94.383264
 21
145.209111
 39
3
 62
7
  0
LINE
  8
contour
  6
CONTINUOUS
 10
94.383264
 20
140.209111
 11
104.383264
 21
140.209111
 39
3
 62
7
  0
TEXT
  8
contour
  6
CONTINUOUS
 10
80.079433
 20
103.586196
 40
6.000000
 50
0.000000
 72
1
  7
Courier#1.200000#3.600000
  1
Bend
 39
3
 62
7
  0
TEXT
  8
contour
  6
CONTINUOUS
 10
80.079433
 20
95.186196
 40
6.000000
 50
0.000000
 72
1
  7
Courier#1.200000#3.600000
  1
flaps
 39
3
 62
7
  0
TEXT
  8
contour
  6
CONTINUOUS
 10
80.079433
 20
86.786196
 40
6.000000
 50
0.000000
 72
1
  7
Courier#1.200000#3.600000
  1
towards
 39
3
 62
7
  0
TEXT
  8
contour
  6
CONTINUOUS
 10
80.079433
 20
78.386196
 40
6.000000
 50
0.000000
 72
1
  7
Courier#1.200000#3.600000
  1
you
 39
3
 62
7
  0
LINE
  8
contour
  6
CONTINUOUS
 10
134.883264
 20
226.209111
 11
156.883264
 21
226.209111
 39
3
 62
7
  0
CIRCLE
  8
contour
  6
CONTINUOUS
 10
145.883264
 20
209.709111
 40
5.000000
 39
3
 62
7
  0
CIRCLE
  8
contour
  6
CONTINUOUS
 10
153.383264
 20
163.709111
 40
1.650000
 39
3
 62
7
  0
TEXT
  8
contour
  6
CONTINUOUS
 10
144.431706
 20
197.462921
 40
8.000000
 50
0.000000
 72
1
  7
Courier#1.600000#4.800000
  1
10
 39
3
 62
7
  0
TEXT
  8
contour
  6
CONTINUOUS
 10
145.948537
 20
157.808628
 40
5.000000
 50
0.000000
 72
1
  7
Courier#1.000000#3.000000
  1
3.3
 39
3
 62
7
  0
LINE
  8
contour
  6
CONTINUOUS
 10
134.883264
 20
64.209111
 11
156.883264
 21
64.209111
 39
3
 62
7
  0
LINE
  8
contour
  6
CONTINUOUS
 10
134.883264
 20
64.209111
 11
134.883264
 21
226.209111
 39
3
 62
7
  0
LINE
  8
contour
  6
CONTINUOUS
 10
156.883264
 20
64.209111
 11
156.883264
 21
226.209111
 39
3
 62
7
  0
LINE
  8
contour
  6
CONTINUOUS
 10
156.883264
 20
226.209111
 11
178.883264
 21
226.209111
 39
3
 62
7
  0
LINE
  8
contour
  6
CONTINUOUS
 10
156.883264
 20
64.209111
 11
178.883264
 21
64.209111
 39
3
 62
7
  0
LINE
  8
contour
  6
CONTINUOUS
 10
156.883264
 20
64.209111
 11
156.883264
 21
226.209111
 39
3
 62
7
  0
LINE
  8
contour
  6
CONTINUOUS
 10
178.883264
 20
64.209111
 11
178.883264
 21
226.209111
 39
3
 62
7
  0
CIRCLE
  8
contour
  6
CONTINUOUS
 10
167.883264
 20
180.209111
 40
1.750000
 39
3
 62
7
  0
CIRCLE
  8
contour
  6
CONTINUOUS
 10
167.883264
 20
210.209111
 40
1.650000
 39
3
 62
7
  0
CIRCLE
  8
contour
  6
CONTINUOUS
 10
167.883264
 20
150.209111
 40
1.650000
 39
3
 62
7
  0
TEXT
  8
contour
  6
CONTINUOUS
 10
162.113620
 20
205.090413
 40
5.000000
 50
0.000000
 72
1
  7
Courier#1.000000#3.000000
  1
3.3
 39
3
 62
7
  0
TEXT
  8
contour
  6
CONTINUOUS
 10
162.460324
 20
145.283938
 40
5.000000
 50
0.000000
 72
1
  7
Courier#1.000000#3.000000
  1
3.3
 39
3
 62
7
  0
TEXT
  8
contour
  6
CONTINUOUS
 10
162.460324
 20
174.753796
 40
5.000000
 50
0.000000
 72
1
  7
Courier#1.000000#3.000000
  1
3.5
 39
3
 62
7
  0
CIRCLE
  8
contour
  6
CONTINUOUS
 10
145.883264
 20
126.209111
 40
2.000000
 39
3
 62
7
  0
CIRCLE
  8
contour
  6
CONTINUOUS
 10
167.883264
 20
126.209111
 40
2.000000
 39
3
 62
7
  0
CIRCLE
  8
contour
  6
CONTINUOUS
 10
167.883264
 20
75.209111
 40
2.000000
 39
3
 62
7
  0
CIRCLE
  8
contour
  6
CONTINUOUS
 10
145.883264
 20
75.209111
 40
2.000000
 39
3
 62
7
  0
TEXT
  8
contour
  6
CONTINUOUS
 10
149.670832
 20
117.304515
 40
7.000000
 50
0.000000
 72
1
  7
Normal#0.700000#4.200000
  1
4
 39
3
 62
7
  0
TEXT
  8
contour
  6
CONTINUOUS
 10
148.922478
 20
78.203010
 40
7.000000
 50
0.000000
 72
1
  7
Normal#0.700000#4.200000
  1
4
 39
3
 62
7
  0
TEXT
  8
contour
  6
CONTINUOUS
 10
172.121457
 20
117.304515
 40
7.000000
 50
0.000000
 72
1
  7
Normal#0.700000#4.200000
  1
4
 39
3
 62
7
  0
TEXT
  8
contour
  6
CONTINUOUS
 10
172.308546
 20
77.267567
 40
7.000000
 50
0.000000
 72
1
  7
Normal#0.700000#4.200000
  1
4
 39
3
 62
7
  0
TEXT
  8
contour
  6
CONTINUOUS
 10
109.085931
 20
247.513335
 40
6.000000
 50
0.000000
 72
1
  7
Courier#1.200000#3.600000
  1
Ronja TX PCB
 39
3
 62
7
  0
TEXT
  8
contour
  6
CONTINUOUS
 10
109.085931
 20
239.113335
 40
6.000000
 50
0.000000
 72
1
  7
Courier#1.200000#3.600000
  1
Box Template
 39
3
 62
7
  0
LINE
  8
helper
  6
CONTINUOUS
 10
134.883264
 20
209.709111
 11
156.883264
 21
209.709111
 39
1
 62
7
  0
LINE
  8
helper
  6
CONTINUOUS
 10
134.883264
 20
163.709111
 11
156.883264
 21
163.709111
 39
1
 62
7
  0
LINE
  8
helper
  6
CONTINUOUS
 10
156.883264
 20
210.209111
 11
178.883264
 21
210.209111
 39
1
 62
7
  0
LINE
  8
helper
  6
CONTINUOUS
 10
156.883264
 20
180.209111
 11
178.883264
 21
180.209111
 39
1
 62
7
  0
LINE
  8
helper
  6
CONTINUOUS
 10
156.883264
 20
150.209111
 11
178.883264
 21
150.209111
 39
1
 62
7
  0
LINE
  8
helper
  6
CONTINUOUS
 10
153.383264
 20
162.059111
 11
153.383264
 21
226.209111
 39
1
 62
7
  0
LINE
  8
helper
  6
CONTINUOUS
 10
134.883264
 20
126.209111
 11
156.883264
 21
126.209111
 39
1
 62
7
  0
LINE
  8
helper
  6
CONTINUOUS
 10
156.883264
 20
126.209111
 11
178.883264
 21
126.209111
 39
1
 62
7
  0
LINE
  8
helper
  6
CONTINUOUS
 10
134.883264
 20
75.209111
 11
156.883264
 21
75.209111
 39
1
 62
7
  0
LINE
  8
helper
  6
CONTINUOUS
 10
156.883264
 20
75.209111
 11
178.883264
 21
75.209111
 39
1
 62
7
  0
LINE
  8
helper
  6
CONTINUOUS
 10
167.883264
 20
226.209111
 11
167.883264
 21
64.209111
 39
1
 62
7
  0
LINE
  8
helper
  6
CONTINUOUS
 10
145.883264
 20
226.209111
 11
145.883264
 21
64.209111
 39
1
 62
7
  0
ENDSEC
  0
EOF
