  0
SECTION
  2
HEADER
  9
$LIMMIN
 10
0.000000
 20
0.000000
  9
$LIMMAX
 10
175.779312
 20
266.686920
  9
$EXTMIN
 10
0.000000
 20
0.000000
  9
$EXTMAX
 10
175.779312
 20
266.686920
  9
$ANGBASE
 50
0.000000
  9
$ANGDIR
 70
0
  9
$INSUNITS
 70
4
  9
$DIMALT
 70
4
  9
$DIMLUNIT
 70
2
  9
$DIMASZ
 40
2.000000
  9
$DIMTXT
 40
3.000000
  9
$DIMRND
 40
0.010000
  9
$DIMEXE
 40
1.000000
  9
$DIMEXO
 40
1.000000
  9
$DIMAUNIT
 70
0
  9
$DIMADEC
 70
2
  9
$GRIDUNIT
 10
0.001000
 20
0.001000
  9
$PLIMMIN
 10
0.000000
 20
0.000000
  9
$PLIMMAX
 10
210.000000
 20
297.000000
  9
$PSVPSCALE
 40
1.000000
  0
ENDSEC
  0
SECTION
  2
TABLES
  0
TABLE
  2
LTYPE
 70
     1
  0
LTYPE
  2
CONTINUOUS
 70
    64
  3
Ausgez
 72
    65
 73
  0
 40
0.000000
  0
ENDTAB
  0
TABLE
  2
LAYER
 70
     1
  0
LAYER
  2
default
 70
    64
 62
7
  6
CONTINUOUS
  0
LAYER
  2
contour
 70
    64
 62
7
  6
CONTINUOUS
  0
LAYER
  2
invisible
 70
    64
 62
7
  6
DASH
  0
LAYER
  2
axes
 70
    64
 62
7
  6
DASHDOT
  0
ENDTAB
  0
ENDSEC
  0
SECTION
  2
BLOCKS
  0
ENDSEC
  0
SECTION
  2
ENTITIES
  0
LINE
  8
contour
  6
CONTINUOUS
 10
50.000000
 20
90.000000
 11
142.000000
 21
90.000000
 39
2
 62
7
  0
LINE
  8
contour
  6
CONTINUOUS
 10
142.000000
 20
90.000000
 11
142.000000
 21
68.000000
 39
2
 62
7
  0
LINE
  8
contour
  6
CONTINUOUS
 10
142.000000
 20
68.000000
 11
50.000000
 21
68.000000
 39
2
 62
7
  0
CIRCLE
  8
contour
  6
CONTINUOUS
 10
66.000000
 20
79.000000
 40
1.650000
 39
2
 62
7
  0
LINE
  8
contour
  6
CONTINUOUS
 10
67.650000
 20
200.000000
 11
94.250000
 21
200.000000
 39
2
 62
7
  0
LINE
  8
contour
  6
CONTINUOUS
 10
97.750000
 20
200.000000
 11
124.350000
 21
200.000000
 39
2
 62
7
  0
LINE
  8
contour
  6
CONTINUOUS
 10
50.000000
 20
90.000000
 11
142.000000
 21
90.000000
 39
2
 62
7
  0
LINE
  8
contour
  6
CONTINUOUS
 10
142.000000
 20
90.000000
 11
142.000000
 21
68.000000
 39
2
 62
7
  0
LINE
  8
contour
  6
CONTINUOUS
 10
50.000000
 20
68.000000
 11
142.000000
 21
68.000000
 39
2
 62
7
  0
LINE
  8
contour
  6
CONTINUOUS
 10
50.000000
 20
90.000000
 11
142.000000
 21
90.000000
 39
2
 62
7
  0
CIRCLE
  8
contour
  6
CONTINUOUS
 10
66.500000
 20
79.000000
 40
5.000000
 39
2
 62
7
  0
LINE
  8
contour
  6
CONTINUOUS
 10
142.000000
 20
90.000000
 11
142.000000
 21
68.000000
 39
2
 62
7
  0
LINE
  8
contour
  6
CONTINUOUS
 10
50.000000
 20
90.000000
 11
50.000000
 21
68.000000
 39
2
 62
7
  0
LINE
  8
contour
  6
CONTINUOUS
 10
50.000000
 20
68.000000
 11
142.000000
 21
68.000000
 39
2
 62
7
  0
LINE
  8
contour
  6
CONTINUOUS
 10
67.650000
 20
199.500000
 11
94.250000
 21
199.500000
 39
2
 62
7
  0
LINE
  8
contour
  6
CONTINUOUS
 10
97.750000
 20
199.500000
 11
124.350000
 21
199.500000
 39
2
 62
7
  0
LINE
  8
contour
  6
CONTINUOUS
 10
50.500000
 20
199.500000
 11
64.350000
 21
199.500000
 39
2
 62
7
  0
LINE
  8
contour
  6
CONTINUOUS
 10
127.650000
 20
199.500000
 11
141.500000
 21
199.500000
 39
2
 62
7
  0
LINE
  8
contour
  6
CONTINUOUS
 10
94.250000
 20
200.000000
 11
94.250000
 21
199.500000
 39
2
 62
7
  0
LINE
  8
contour
  6
CONTINUOUS
 10
97.750000
 20
200.000000
 11
97.750000
 21
199.500000
 39
2
 62
7
  0
LINE
  8
contour
  6
CONTINUOUS
 10
124.350000
 20
200.000000
 11
124.350000
 21
199.500000
 39
2
 62
7
  0
LINE
  8
contour
  6
CONTINUOUS
 10
127.650000
 20
200.000000
 11
127.650000
 21
199.500000
 39
2
 62
7
  0
LINE
  8
contour
  6
CONTINUOUS
 10
71.500000
 20
133.500000
 11
71.500000
 21
133.000000
 39
2
 62
7
  0
LINE
  8
contour
  6
CONTINUOUS
 10
61.500000
 20
133.500000
 11
61.500000
 21
133.000000
 39
2
 62
7
  0
LINE
  8
contour
  6
CONTINUOUS
 10
64.350000
 20
200.000000
 11
64.350000
 21
199.500000
 39
2
 62
7
  0
LINE
  8
contour
  6
CONTINUOUS
 10
67.650000
 20
200.000000
 11
67.650000
 21
199.500000
 39
2
 62
7
  0
LINE
  8
contour
  6
CONTINUOUS
 10
87.385300
 20
199.500000
 11
87.385300
 21
194.420000
 39
2
 62
7
  0
LINE
  8
contour
  6
CONTINUOUS
 10
87.385300
 20
194.420000
 11
104.631900
 21
194.420000
 39
2
 62
7
  0
LINE
  8
contour
  6
CONTINUOUS
 10
104.631900
 20
199.500000
 11
104.631900
 21
194.420000
 39
2
 62
7
  0
LINE
  8
contour
  6
CONTINUOUS
 10
105.825700
 20
141.120000
 11
105.825700
 21
133.500000
 39
2
 62
7
  0
LINE
  8
contour
  6
CONTINUOUS
 10
118.538400
 20
141.120000
 11
118.538400
 21
133.500000
 39
2
 62
7
  0
LINE
  8
contour
  6
CONTINUOUS
 10
105.825700
 20
141.120000
 11
118.538400
 21
141.120000
 39
2
 62
7
  0
LINE
  8
contour
  6
CONTINUOUS
 10
82.364300
 20
145.095100
 11
82.364300
 21
133.500000
 39
2
 62
7
  0
LINE
  8
contour
  6
CONTINUOUS
 10
50.500000
 20
145.095100
 11
82.364300
 21
145.095100
 39
2
 62
7
  0
LINE
  8
contour
  6
CONTINUOUS
 10
64.320551
 20
74.500000
 11
68.679449
 21
74.500000
 39
2
 62
7
  0
LINE
  8
contour
  6
CONTINUOUS
 10
71.500000
 20
133.500000
 11
110.850000
 21
133.500000
 39
2
 62
7
  0
LINE
  8
contour
  6
CONTINUOUS
 10
71.500000
 20
133.000000
 11
110.850000
 21
133.000000
 39
2
 62
7
  0
LINE
  8
contour
  6
CONTINUOUS
 10
110.850000
 20
133.500000
 11
110.850000
 21
133.000000
 39
2
 62
7
  0
LINE
  8
contour
  6
CONTINUOUS
 10
114.150000
 20
133.500000
 11
141.500000
 21
133.500000
 39
2
 62
7
  0
LINE
  8
contour
  6
CONTINUOUS
 10
114.150000
 20
133.500000
 11
114.150000
 21
133.000000
 39
2
 62
7
  0
CIRCLE
  8
contour
  6
CONTINUOUS
 10
112.500000
 20
86.500000
 40
1.650000
 39
2
 62
7
  0
LINE
  8
contour
  6
CONTINUOUS
 10
26.500000
 20
200.000000
 11
26.500000
 21
133.000000
 39
2
 62
7
  0
LINE
  8
contour
  6
CONTINUOUS
 10
127.650000
 20
200.000000
 11
165.500000
 21
200.000000
 39
2
 62
7
  0
LINE
  8
contour
  6
CONTINUOUS
 10
114.150000
 20
133.000000
 11
165.500000
 21
133.000000
 39
2
 62
7
  0
LINE
  8
contour
  6
CONTINUOUS
 10
26.500000
 20
133.000000
 11
61.500000
 21
133.000000
 39
2
 62
7
  0
LINE
  8
contour
  6
CONTINUOUS
 10
26.500000
 20
133.000000
 11
31.500000
 21
138.000000
 39
2
 62
7
  0
LINE
  8
contour
  6
CONTINUOUS
 10
26.500000
 20
200.000000
 11
31.500000
 21
195.000000
 39
2
 62
7
  0
LINE
  8
contour
  6
CONTINUOUS
 10
26.500000
 20
200.000000
 11
64.350000
 21
200.000000
 39
2
 62
7
  0
LINE
  8
contour
  6
CONTINUOUS
 10
31.500000
 20
195.000000
 11
45.000000
 21
195.000000
 39
2
 62
7
  0
LINE
  8
contour
  6
CONTINUOUS
 10
31.500000
 20
138.000000
 11
45.000000
 21
138.000000
 39
2
 62
7
  0
LINE
  8
contour
  6
CONTINUOUS
 10
45.000000
 20
195.000000
 11
50.000000
 21
190.000000
 39
2
 62
7
  0
LINE
  8
contour
  6
CONTINUOUS
 10
27.000000
 20
200.000000
 11
27.000000
 21
133.000000
 39
2
 62
7
  0
LINE
  8
contour
  6
CONTINUOUS
 10
45.000000
 20
138.000000
 11
50.000000
 21
143.000000
 39
2
 62
7
  0
LINE
  8
contour
  6
CONTINUOUS
 10
50.500000
 20
133.500000
 11
61.500000
 21
133.500000
 39
2
 62
7
  0
LINE
  8
contour
  6
CONTINUOUS
 10
50.500000
 20
199.500000
 11
50.500000
 21
194.000000
 39
2
 62
7
  0
LINE
  8
contour
  6
CONTINUOUS
 10
50.500000
 20
190.000000
 11
50.500000
 21
143.000000
 39
2
 62
7
  0
LINE
  8
contour
  6
CONTINUOUS
 10
50.000000
 20
190.000000
 11
50.000000
 21
143.000000
 39
2
 62
7
  0
LINE
  8
contour
  6
CONTINUOUS
 10
50.500000
 20
139.000000
 11
50.500000
 21
133.500000
 39
2
 62
7
  0
LINE
  8
contour
  6
CONTINUOUS
 10
165.500000
 20
200.000000
 11
165.500000
 21
133.000000
 39
2
 62
7
  0
LINE
  8
contour
  6
CONTINUOUS
 10
165.500000
 20
133.000000
 11
160.500000
 21
138.000000
 39
2
 62
7
  0
LINE
  8
contour
  6
CONTINUOUS
 10
165.500000
 20
200.000000
 11
160.500000
 21
195.000000
 39
2
 62
7
  0
LINE
  8
contour
  6
CONTINUOUS
 10
160.500000
 20
195.000000
 11
147.000000
 21
195.000000
 39
2
 62
7
  0
LINE
  8
contour
  6
CONTINUOUS
 10
160.500000
 20
138.000000
 11
147.000000
 21
138.000000
 39
2
 62
7
  0
LINE
  8
contour
  6
CONTINUOUS
 10
147.000000
 20
195.000000
 11
142.000000
 21
190.000000
 39
2
 62
7
  0
LINE
  8
contour
  6
CONTINUOUS
 10
165.000000
 20
200.000000
 11
165.000000
 21
133.000000
 39
2
 62
7
  0
LINE
  8
contour
  6
CONTINUOUS
 10
147.000000
 20
138.000000
 11
142.000000
 21
143.000000
 39
2
 62
7
  0
LINE
  8
contour
  6
CONTINUOUS
 10
141.500000
 20
139.000000
 11
141.500000
 21
133.500000
 39
2
 62
7
  0
LINE
  8
contour
  6
CONTINUOUS
 10
141.500000
 20
190.000000
 11
141.500000
 21
143.000000
 39
2
 62
7
  0
LINE
  8
contour
  6
CONTINUOUS
 10
142.000000
 20
190.000000
 11
142.000000
 21
143.000000
 39
2
 62
7
  0
LINE
  8
contour
  6
CONTINUOUS
 10
141.500000
 20
199.500000
 11
141.500000
 21
194.000000
 39
2
 62
7
  0
LINE
  8
contour
  6
CONTINUOUS
 10
50.000000
 20
90.000000
 11
50.000000
 21
84.000000
 39
2
 62
7
  0
LINE
  8
contour
  6
CONTINUOUS
 10
50.000000
 20
84.000000
 11
50.000000
 21
68.000000
 39
2
 62
7
  0
LINE
  8
contour
  6
CONTINUOUS
 10
142.000000
 20
84.000000
 11
165.500000
 21
84.000000
 39
2
 62
7
  0
LINE
  8
contour
  6
CONTINUOUS
 10
142.000000
 20
74.000000
 11
165.500000
 21
74.000000
 39
2
 62
7
  0
LINE
  8
contour
  6
CONTINUOUS
 10
26.500000
 20
74.000000
 11
50.000000
 21
74.000000
 39
2
 62
7
  0
LINE
  8
contour
  6
CONTINUOUS
 10
26.500000
 20
84.000000
 11
50.000000
 21
84.000000
 39
2
 62
7
  0
LINE
  8
contour
  6
CONTINUOUS
 10
26.500000
 20
87.000000
 11
26.500000
 21
71.000000
 39
2
 62
7
  0
LINE
  8
contour
  6
CONTINUOUS
 10
165.500000
 20
87.000000
 11
165.500000
 21
71.000000
 39
2
 62
7
  0
LINE
  8
contour
  6
CONTINUOUS
 10
165.000000
 20
87.000000
 11
165.500000
 21
87.000000
 39
2
 62
7
  0
LINE
  8
contour
  6
CONTINUOUS
 10
165.000000
 20
71.000000
 11
165.500000
 21
71.000000
 39
2
 62
7
  0
LINE
  8
contour
  6
CONTINUOUS
 10
27.000000
 20
71.000000
 11
26.500000
 21
71.000000
 39
2
 62
7
  0
LINE
  8
contour
  6
CONTINUOUS
 10
26.500000
 20
87.000000
 11
27.000000
 21
87.000000
 39
2
 62
7
  0
LINE
  8
contour
  6
CONTINUOUS
 10
27.000000
 20
192.000000
 11
27.000000
 21
194.700000
 39
2
 62
7
  0
LINE
  8
contour
  6
CONTINUOUS
 10
27.000000
 20
194.700000
 11
27.400000
 21
196.041452
 39
2
 62
7
  0
LINE
  8
contour
  6
CONTINUOUS
 10
27.400000
 20
196.041452
 11
28.600000
 21
196.041452
 39
2
 62
7
  0
LINE
  8
contour
  6
CONTINUOUS
 10
27.000000
 20
194.700000
 11
27.400000
 21
194.020726
 39
2
 62
7
  0
LINE
  8
contour
  6
CONTINUOUS
 10
27.400000
 20
194.020726
 11
28.600000
 21
194.020726
 39
2
 62
7
  0
LINE
  8
contour
  6
CONTINUOUS
 10
27.400000
 20
194.020726
 11
27.000000
 21
192.500000
 39
2
 62
7
  0
LINE
  8
contour
  6
CONTINUOUS
 10
30.200000
 20
192.000000
 11
30.200000
 21
194.700000
 39
2
 62
7
  0
LINE
  8
contour
  6
CONTINUOUS
 10
30.200000
 20
194.700000
 11
29.800000
 21
196.041452
 39
2
 62
7
  0
LINE
  8
contour
  6
CONTINUOUS
 10
29.800000
 20
196.041452
 11
28.600000
 21
196.041452
 39
2
 62
7
  0
LINE
  8
contour
  6
CONTINUOUS
 10
30.200000
 20
194.700000
 11
29.800000
 21
194.020726
 39
2
 62
7
  0
LINE
  8
contour
  6
CONTINUOUS
 10
29.800000
 20
194.020726
 11
28.600000
 21
194.020726
 39
2
 62
7
  0
LINE
  8
contour
  6
CONTINUOUS
 10
29.800000
 20
194.020726
 11
30.200000
 21
192.500000
 39
2
 62
7
  0
LINE
  8
contour
  6
CONTINUOUS
 10
27.000000
 20
192.000000
 11
27.000000
 21
189.300000
 39
2
 62
7
  0
LINE
  8
contour
  6
CONTINUOUS
 10
27.000000
 20
189.300000
 11
27.400000
 21
187.958548
 39
2
 62
7
  0
LINE
  8
contour
  6
CONTINUOUS
 10
27.400000
 20
187.958548
 11
28.600000
 21
187.958548
 39
2
 62
7
  0
LINE
  8
contour
  6
CONTINUOUS
 10
27.000000
 20
189.300000
 11
27.400000
 21
189.979274
 39
2
 62
7
  0
LINE
  8
contour
  6
CONTINUOUS
 10
27.400000
 20
189.979274
 11
28.600000
 21
189.979274
 39
2
 62
7
  0
LINE
  8
contour
  6
CONTINUOUS
 10
27.400000
 20
189.979274
 11
27.000000
 21
191.500000
 39
2
 62
7
  0
LINE
  8
contour
  6
CONTINUOUS
 10
30.200000
 20
192.000000
 11
30.200000
 21
189.300000
 39
2
 62
7
  0
LINE
  8
contour
  6
CONTINUOUS
 10
30.200000
 20
189.300000
 11
29.800000
 21
187.958548
 39
2
 62
7
  0
LINE
  8
contour
  6
CONTINUOUS
 10
29.800000
 20
187.958548
 11
28.600000
 21
187.958548
 39
2
 62
7
  0
LINE
  8
contour
  6
CONTINUOUS
 10
30.200000
 20
189.300000
 11
29.800000
 21
189.979274
 39
2
 62
7
  0
LINE
  8
contour
  6
CONTINUOUS
 10
29.800000
 20
189.979274
 11
28.600000
 21
189.979274
 39
2
 62
7
  0
LINE
  8
contour
  6
CONTINUOUS
 10
29.800000
 20
189.979274
 11
30.200000
 21
191.500000
 39
2
 62
7
  0
LINE
  8
contour
  6
CONTINUOUS
 10
27.000000
 20
141.000000
 11
27.000000
 21
143.700000
 39
2
 62
7
  0
LINE
  8
contour
  6
CONTINUOUS
 10
27.000000
 20
143.700000
 11
27.400000
 21
145.041452
 39
2
 62
7
  0
LINE
  8
contour
  6
CONTINUOUS
 10
27.400000
 20
145.041452
 11
28.600000
 21
145.041452
 39
2
 62
7
  0
LINE
  8
contour
  6
CONTINUOUS
 10
27.000000
 20
143.700000
 11
27.400000
 21
143.020726
 39
2
 62
7
  0
LINE
  8
contour
  6
CONTINUOUS
 10
27.400000
 20
143.020726
 11
28.600000
 21
143.020726
 39
2
 62
7
  0
LINE
  8
contour
  6
CONTINUOUS
 10
27.400000
 20
143.020726
 11
27.000000
 21
141.500000
 39
2
 62
7
  0
LINE
  8
contour
  6
CONTINUOUS
 10
30.200000
 20
141.000000
 11
30.200000
 21
143.700000
 39
2
 62
7
  0
LINE
  8
contour
  6
CONTINUOUS
 10
30.200000
 20
143.700000
 11
29.800000
 21
145.041452
 39
2
 62
7
  0
LINE
  8
contour
  6
CONTINUOUS
 10
29.800000
 20
145.041452
 11
28.600000
 21
145.041452
 39
2
 62
7
  0
LINE
  8
contour
  6
CONTINUOUS
 10
30.200000
 20
143.700000
 11
29.800000
 21
143.020726
 39
2
 62
7
  0
LINE
  8
contour
  6
CONTINUOUS
 10
29.800000
 20
143.020726
 11
28.600000
 21
143.020726
 39
2
 62
7
  0
LINE
  8
contour
  6
CONTINUOUS
 10
29.800000
 20
143.020726
 11
30.200000
 21
141.500000
 39
2
 62
7
  0
LINE
  8
contour
  6
CONTINUOUS
 10
27.000000
 20
141.000000
 11
27.000000
 21
138.300000
 39
2
 62
7
  0
LINE
  8
contour
  6
CONTINUOUS
 10
27.000000
 20
138.300000
 11
27.400000
 21
136.958548
 39
2
 62
7
  0
LINE
  8
contour
  6
CONTINUOUS
 10
27.400000
 20
136.958548
 11
28.600000
 21
136.958548
 39
2
 62
7
  0
LINE
  8
contour
  6
CONTINUOUS
 10
27.000000
 20
138.300000
 11
27.400000
 21
138.979274
 39
2
 62
7
  0
LINE
  8
contour
  6
CONTINUOUS
 10
27.400000
 20
138.979274
 11
28.600000
 21
138.979274
 39
2
 62
7
  0
LINE
  8
contour
  6
CONTINUOUS
 10
27.400000
 20
138.979274
 11
27.000000
 21
140.500000
 39
2
 62
7
  0
LINE
  8
contour
  6
CONTINUOUS
 10
30.200000
 20
141.000000
 11
30.200000
 21
138.300000
 39
2
 62
7
  0
LINE
  8
contour
  6
CONTINUOUS
 10
30.200000
 20
138.300000
 11
29.800000
 21
136.958548
 39
2
 62
7
  0
LINE
  8
contour
  6
CONTINUOUS
 10
29.800000
 20
136.958548
 11
28.600000
 21
136.958548
 39
2
 62
7
  0
LINE
  8
contour
  6
CONTINUOUS
 10
30.200000
 20
138.300000
 11
29.800000
 21
138.979274
 39
2
 62
7
  0
LINE
  8
contour
  6
CONTINUOUS
 10
29.800000
 20
138.979274
 11
28.600000
 21
138.979274
 39
2
 62
7
  0
LINE
  8
contour
  6
CONTINUOUS
 10
29.800000
 20
138.979274
 11
30.200000
 21
140.500000
 39
2
 62
7
  0
LINE
  8
contour
  6
CONTINUOUS
 10
165.000000
 20
192.000000
 11
165.000000
 21
194.700000
 39
2
 62
7
  0
LINE
  8
contour
  6
CONTINUOUS
 10
165.000000
 20
194.700000
 11
164.600000
 21
196.041452
 39
2
 62
7
  0
LINE
  8
contour
  6
CONTINUOUS
 10
164.600000
 20
196.041452
 11
163.400000
 21
196.041452
 39
2
 62
7
  0
LINE
  8
contour
  6
CONTINUOUS
 10
165.000000
 20
194.700000
 11
164.600000
 21
194.020726
 39
2
 62
7
  0
LINE
  8
contour
  6
CONTINUOUS
 10
164.600000
 20
194.020726
 11
163.400000
 21
194.020726
 39
2
 62
7
  0
LINE
  8
contour
  6
CONTINUOUS
 10
164.600000
 20
194.020726
 11
165.000000
 21
192.500000
 39
2
 62
7
  0
LINE
  8
contour
  6
CONTINUOUS
 10
161.800000
 20
192.000000
 11
161.800000
 21
194.700000
 39
2
 62
7
  0
LINE
  8
contour
  6
CONTINUOUS
 10
161.800000
 20
194.700000
 11
162.200000
 21
196.041452
 39
2
 62
7
  0
LINE
  8
contour
  6
CONTINUOUS
 10
162.200000
 20
196.041452
 11
163.400000
 21
196.041452
 39
2
 62
7
  0
LINE
  8
contour
  6
CONTINUOUS
 10
161.800000
 20
194.700000
 11
162.200000
 21
194.020726
 39
2
 62
7
  0
LINE
  8
contour
  6
CONTINUOUS
 10
162.200000
 20
194.020726
 11
163.400000
 21
194.020726
 39
2
 62
7
  0
LINE
  8
contour
  6
CONTINUOUS
 10
162.200000
 20
194.020726
 11
161.800000
 21
192.500000
 39
2
 62
7
  0
LINE
  8
contour
  6
CONTINUOUS
 10
165.000000
 20
192.000000
 11
165.000000
 21
189.300000
 39
2
 62
7
  0
LINE
  8
contour
  6
CONTINUOUS
 10
165.000000
 20
189.300000
 11
164.600000
 21
187.958548
 39
2
 62
7
  0
LINE
  8
contour
  6
CONTINUOUS
 10
164.600000
 20
187.958548
 11
163.400000
 21
187.958548
 39
2
 62
7
  0
LINE
  8
contour
  6
CONTINUOUS
 10
165.000000
 20
189.300000
 11
164.600000
 21
189.979274
 39
2
 62
7
  0
LINE
  8
contour
  6
CONTINUOUS
 10
164.600000
 20
189.979274
 11
163.400000
 21
189.979274
 39
2
 62
7
  0
LINE
  8
contour
  6
CONTINUOUS
 10
164.600000
 20
189.979274
 11
165.000000
 21
191.500000
 39
2
 62
7
  0
LINE
  8
contour
  6
CONTINUOUS
 10
161.800000
 20
192.000000
 11
161.800000
 21
189.300000
 39
2
 62
7
  0
LINE
  8
contour
  6
CONTINUOUS
 10
161.800000
 20
189.300000
 11
162.200000
 21
187.958548
 39
2
 62
7
  0
LINE
  8
contour
  6
CONTINUOUS
 10
162.200000
 20
187.958548
 11
163.400000
 21
187.958548
 39
2
 62
7
  0
LINE
  8
contour
  6
CONTINUOUS
 10
161.800000
 20
189.300000
 11
162.200000
 21
189.979274
 39
2
 62
7
  0
LINE
  8
contour
  6
CONTINUOUS
 10
162.200000
 20
189.979274
 11
163.400000
 21
189.979274
 39
2
 62
7
  0
LINE
  8
contour
  6
CONTINUOUS
 10
162.200000
 20
189.979274
 11
161.800000
 21
191.500000
 39
2
 62
7
  0
LINE
  8
contour
  6
CONTINUOUS
 10
165.000000
 20
141.000000
 11
165.000000
 21
143.700000
 39
2
 62
7
  0
LINE
  8
contour
  6
CONTINUOUS
 10
165.000000
 20
143.700000
 11
164.600000
 21
145.041452
 39
2
 62
7
  0
LINE
  8
contour
  6
CONTINUOUS
 10
164.600000
 20
145.041452
 11
163.400000
 21
145.041452
 39
2
 62
7
  0
LINE
  8
contour
  6
CONTINUOUS
 10
165.000000
 20
143.700000
 11
164.600000
 21
143.020726
 39
2
 62
7
  0
LINE
  8
contour
  6
CONTINUOUS
 10
164.600000
 20
143.020726
 11
163.400000
 21
143.020726
 39
2
 62
7
  0
LINE
  8
contour
  6
CONTINUOUS
 10
164.600000
 20
143.020726
 11
165.000000
 21
141.500000
 39
2
 62
7
  0
LINE
  8
contour
  6
CONTINUOUS
 10
161.800000
 20
141.000000
 11
161.800000
 21
143.700000
 39
2
 62
7
  0
LINE
  8
contour
  6
CONTINUOUS
 10
161.800000
 20
143.700000
 11
162.200000
 21
145.041452
 39
2
 62
7
  0
LINE
  8
contour
  6
CONTINUOUS
 10
162.200000
 20
145.041452
 11
163.400000
 21
145.041452
 39
2
 62
7
  0
LINE
  8
contour
  6
CONTINUOUS
 10
161.800000
 20
143.700000
 11
162.200000
 21
143.020726
 39
2
 62
7
  0
LINE
  8
contour
  6
CONTINUOUS
 10
162.200000
 20
143.020726
 11
163.400000
 21
143.020726
 39
2
 62
7
  0
LINE
  8
contour
  6
CONTINUOUS
 10
162.200000
 20
143.020726
 11
161.800000
 21
141.500000
 39
2
 62
7
  0
LINE
  8
contour
  6
CONTINUOUS
 10
165.000000
 20
141.000000
 11
165.000000
 21
138.300000
 39
2
 62
7
  0
LINE
  8
contour
  6
CONTINUOUS
 10
165.000000
 20
138.300000
 11
164.600000
 21
136.958548
 39
2
 62
7
  0
LINE
  8
contour
  6
CONTINUOUS
 10
164.600000
 20
136.958548
 11
163.400000
 21
136.958548
 39
2
 62
7
  0
LINE
  8
contour
  6
CONTINUOUS
 10
165.000000
 20
138.300000
 11
164.600000
 21
138.979274
 39
2
 62
7
  0
LINE
  8
contour
  6
CONTINUOUS
 10
164.600000
 20
138.979274
 11
163.400000
 21
138.979274
 39
2
 62
7
  0
LINE
  8
contour
  6
CONTINUOUS
 10
164.600000
 20
138.979274
 11
165.000000
 21
140.500000
 39
2
 62
7
  0
LINE
  8
contour
  6
CONTINUOUS
 10
161.800000
 20
141.000000
 11
161.800000
 21
138.300000
 39
2
 62
7
  0
LINE
  8
contour
  6
CONTINUOUS
 10
161.800000
 20
138.300000
 11
162.200000
 21
136.958548
 39
2
 62
7
  0
LINE
  8
contour
  6
CONTINUOUS
 10
162.200000
 20
136.958548
 11
163.400000
 21
136.958548
 39
2
 62
7
  0
LINE
  8
contour
  6
CONTINUOUS
 10
161.800000
 20
138.300000
 11
162.200000
 21
138.979274
 39
2
 62
7
  0
LINE
  8
contour
  6
CONTINUOUS
 10
162.200000
 20
138.979274
 11
163.400000
 21
138.979274
 39
2
 62
7
  0
LINE
  8
contour
  6
CONTINUOUS
 10
162.200000
 20
138.979274
 11
161.800000
 21
140.500000
 39
2
 62
7
  0
TEXT
  8
contour
  6
CONTINUOUS
 10
105.279312
 20
257.686920
 40
9.000000
 50
0.000000
 72
1
  7
Normal#2.000000#6.000000
  1
PCB TX
 39
2
 62
7
  0
CIRCLE
  8
invisible
  6
DASH
 10
126.000000
 20
79.000000
 40
1.650000
 39
2
 62
7
  0
CIRCLE
  8
invisible
  6
DASH
 10
96.000000
 20
79.000000
 40
1.750000
 39
2
 62
7
  0
LINE
  8
invisible
  6
DASH
 10
142.000000
 20
73.000000
 11
50.000000
 21
73.000000
 39
2
 62
7
  0
LINE
  8
invisible
  6
DASH
 10
64.320551
 20
74.500000
 11
50.000000
 21
74.500000
 39
2
 62
7
  0
LINE
  8
invisible
  6
DASH
 10
142.000000
 20
74.500000
 11
68.679449
 21
74.500000
 39
2
 62
7
  0
LINE
  8
invisible
  6
DASH
 10
26.500000
 20
133.500000
 11
50.000000
 21
133.500000
 39
2
 62
7
  0
LINE
  8
invisible
  6
DASH
 10
26.500000
 20
199.500000
 11
50.000000
 21
199.500000
 39
2
 62
7
  0
LINE
  8
invisible
  6
DASH
 10
50.000000
 20
199.500000
 11
50.000000
 21
194.000000
 39
2
 62
7
  0
LINE
  8
invisible
  6
DASH
 10
50.000000
 20
194.000000
 11
50.500000
 21
194.000000
 39
2
 62
7
  0
LINE
  8
invisible
  6
DASH
 10
50.000000
 20
190.000000
 11
50.500000
 21
190.000000
 39
2
 62
7
  0
LINE
  8
invisible
  6
DASH
 10
50.000000
 20
139.000000
 11
50.000000
 21
133.500000
 39
2
 62
7
  0
LINE
  8
invisible
  6
DASH
 10
50.000000
 20
143.000000
 11
50.500000
 21
143.000000
 39
2
 62
7
  0
LINE
  8
invisible
  6
DASH
 10
50.000000
 20
139.000000
 11
50.500000
 21
139.000000
 39
2
 62
7
  0
LINE
  8
invisible
  6
DASH
 10
165.500000
 20
133.500000
 11
142.000000
 21
133.500000
 39
2
 62
7
  0
LINE
  8
invisible
  6
DASH
 10
165.500000
 20
199.500000
 11
142.000000
 21
199.500000
 39
2
 62
7
  0
LINE
  8
invisible
  6
DASH
 10
141.500000
 20
139.000000
 11
142.000000
 21
139.000000
 39
2
 62
7
  0
LINE
  8
invisible
  6
DASH
 10
142.000000
 20
139.000000
 11
142.000000
 21
133.500000
 39
2
 62
7
  0
LINE
  8
invisible
  6
DASH
 10
141.500000
 20
143.000000
 11
142.000000
 21
143.000000
 39
2
 62
7
  0
LINE
  8
invisible
  6
DASH
 10
141.500000
 20
190.000000
 11
142.000000
 21
190.000000
 39
2
 62
7
  0
LINE
  8
invisible
  6
DASH
 10
141.500000
 20
194.000000
 11
142.000000
 21
194.000000
 39
2
 62
7
  0
LINE
  8
invisible
  6
DASH
 10
142.000000
 20
199.500000
 11
142.000000
 21
194.000000
 39
2
 62
7
  0
LINE
  8
invisible
  6
DASH
 10
27.000000
 20
87.000000
 11
27.000000
 21
84.000000
 39
2
 62
7
  0
LINE
  8
invisible
  6
DASH
 10
27.000000
 20
74.000000
 11
27.000000
 21
71.000000
 39
2
 62
7
  0
LINE
  8
invisible
  6
DASH
 10
165.000000
 20
87.000000
 11
165.000000
 21
84.000000
 39
2
 62
7
  0
LINE
  8
invisible
  6
DASH
 10
165.000000
 20
74.000000
 11
165.000000
 21
71.000000
 39
2
 62
7
  0
LINE
  8
invisible
  6
DASH
 10
27.000000
 20
84.000000
 11
27.000000
 21
74.000000
 39
2
 62
7
  0
LINE
  8
invisible
  6
DASH
 10
165.000000
 20
84.000000
 11
165.000000
 21
74.000000
 39
2
 62
7
  0
LINE
  8
invisible
  6
DASH
 10
142.000000
 20
83.500000
 11
165.000000
 21
83.500000
 39
2
 62
7
  0
LINE
  8
invisible
  6
DASH
 10
142.000000
 20
74.500000
 11
165.000000
 21
74.500000
 39
2
 62
7
  0
LINE
  8
invisible
  6
DASH
 10
27.000000
 20
83.500000
 11
50.000000
 21
83.500000
 39
2
 62
7
  0
LINE
  8
invisible
  6
DASH
 10
27.000000
 20
74.500000
 11
50.000000
 21
74.500000
 39
2
 62
7
  0
TEXT
  8
default
  6
CONTINUOUS
 10
105.279312
 20
245.086920
 40
9.000000
 50
0.000000
 72
1
  7
Normal#2.000000#6.000000
  1
mounting bracket placement
 39
2
 62
7
  0
LINE
  8
default
  6
CONTINUOUS
 10
124.350000
 20
200.000000
 11
124.350000
 21
199.500000
 39
2
 62
7
  0
LINE
  8
default
  6
CONTINUOUS
 10
127.650000
 20
200.000000
 11
127.650000
 21
199.500000
 39
2
 62
7
  0
LINE
  8
default
  6
CONTINUOUS
 10
64.350000
 20
200.000000
 11
64.350000
 21
199.500000
 39
2
 62
7
  0
LINE
  8
default
  6
CONTINUOUS
 10
67.650000
 20
200.000000
 11
67.650000
 21
199.500000
 39
2
 62
7
  0
LINE
  8
default
  6
CONTINUOUS
 10
63.250000
 20
197.500000
 11
63.250000
 21
199.500000
 39
2
 62
7
  0
LINE
  8
default
  6
CONTINUOUS
 10
68.750000
 20
197.500000
 11
68.750000
 21
199.500000
 39
2
 62
7
  0
LINE
  8
default
  6
CONTINUOUS
 10
63.250000
 20
197.500000
 11
68.750000
 21
197.500000
 39
2
 62
7
  0
LINE
  8
default
  6
CONTINUOUS
 10
64.625000
 20
197.500000
 11
64.625000
 21
199.500000
 39
2
 62
7
  0
LINE
  8
default
  6
CONTINUOUS
 10
67.375000
 20
197.500000
 11
67.375000
 21
199.500000
 39
2
 62
7
  0
LINE
  8
default
  6
CONTINUOUS
 10
64.350000
 20
199.500000
 11
67.650000
 21
199.500000
 39
2
 62
7
  0
LINE
  8
default
  6
CONTINUOUS
 10
64.550000
 20
209.500000
 11
65.050000
 21
210.000000
 39
2
 62
7
  0
LINE
  8
default
  6
CONTINUOUS
 10
65.050000
 20
210.000000
 11
66.950000
 21
210.000000
 39
2
 62
7
  0
LINE
  8
default
  6
CONTINUOUS
 10
66.950000
 20
210.000000
 11
67.450000
 21
209.500000
 39
2
 62
7
  0
LINE
  8
default
  6
CONTINUOUS
 10
63.250000
 20
200.000000
 11
63.250000
 21
202.000000
 39
2
 62
7
  0
LINE
  8
default
  6
CONTINUOUS
 10
68.750000
 20
200.000000
 11
68.750000
 21
202.000000
 39
2
 62
7
  0
LINE
  8
default
  6
CONTINUOUS
 10
63.250000
 20
200.000000
 11
68.750000
 21
200.000000
 39
2
 62
7
  0
LINE
  8
default
  6
CONTINUOUS
 10
64.625000
 20
200.000000
 11
64.625000
 21
202.000000
 39
2
 62
7
  0
LINE
  8
default
  6
CONTINUOUS
 10
67.375000
 20
200.000000
 11
67.375000
 21
202.000000
 39
2
 62
7
  0
LINE
  8
default
  6
CONTINUOUS
 10
63.250000
 20
202.000000
 11
68.750000
 21
202.000000
 39
2
 62
7
  0
LINE
  8
default
  6
CONTINUOUS
 10
64.625000
 20
202.000000
 11
64.625000
 21
204.000000
 39
2
 62
7
  0
LINE
  8
default
  6
CONTINUOUS
 10
67.375000
 20
202.000000
 11
67.375000
 21
204.000000
 39
2
 62
7
  0
LINE
  8
default
  6
CONTINUOUS
 10
63.250000
 20
202.000000
 11
63.250000
 21
204.000000
 39
2
 62
7
  0
LINE
  8
default
  6
CONTINUOUS
 10
63.250000
 20
204.000000
 11
68.750000
 21
204.000000
 39
2
 62
7
  0
LINE
  8
default
  6
CONTINUOUS
 10
68.750000
 20
202.000000
 11
68.750000
 21
204.000000
 39
2
 62
7
  0
LINE
  8
default
  6
CONTINUOUS
 10
64.800000
 20
204.000000
 11
64.800000
 21
209.750000
 39
2
 62
7
  0
LINE
  8
default
  6
CONTINUOUS
 10
67.200000
 20
204.000000
 11
67.200000
 21
209.750000
 39
2
 62
7
  0
LINE
  8
default
  6
CONTINUOUS
 10
64.550000
 20
199.500000
 11
64.550000
 21
209.500000
 39
2
 62
7
  0
LINE
  8
default
  6
CONTINUOUS
 10
67.450000
 20
199.500000
 11
67.450000
 21
209.500000
 39
2
 62
7
  0
LINE
  8
default
  6
CONTINUOUS
 10
124.350000
 20
200.000000
 11
124.350000
 21
199.500000
 39
2
 62
7
  0
LINE
  8
default
  6
CONTINUOUS
 10
127.650000
 20
200.000000
 11
127.650000
 21
199.500000
 39
2
 62
7
  0
LINE
  8
default
  6
CONTINUOUS
 10
123.250000
 20
197.500000
 11
123.250000
 21
199.500000
 39
2
 62
7
  0
LINE
  8
default
  6
CONTINUOUS
 10
128.750000
 20
197.500000
 11
128.750000
 21
199.500000
 39
2
 62
7
  0
LINE
  8
default
  6
CONTINUOUS
 10
123.250000
 20
197.500000
 11
128.750000
 21
197.500000
 39
2
 62
7
  0
LINE
  8
default
  6
CONTINUOUS
 10
124.625000
 20
197.500000
 11
124.625000
 21
199.500000
 39
2
 62
7
  0
LINE
  8
default
  6
CONTINUOUS
 10
127.375000
 20
197.500000
 11
127.375000
 21
199.500000
 39
2
 62
7
  0
LINE
  8
default
  6
CONTINUOUS
 10
124.350000
 20
199.500000
 11
127.650000
 21
199.500000
 39
2
 62
7
  0
LINE
  8
default
  6
CONTINUOUS
 10
124.550000
 20
209.500000
 11
125.050000
 21
210.000000
 39
2
 62
7
  0
LINE
  8
default
  6
CONTINUOUS
 10
125.050000
 20
210.000000
 11
126.950000
 21
210.000000
 39
2
 62
7
  0
LINE
  8
default
  6
CONTINUOUS
 10
126.950000
 20
210.000000
 11
127.450000
 21
209.500000
 39
2
 62
7
  0
LINE
  8
default
  6
CONTINUOUS
 10
123.250000
 20
200.000000
 11
123.250000
 21
202.000000
 39
2
 62
7
  0
LINE
  8
default
  6
CONTINUOUS
 10
128.750000
 20
200.000000
 11
128.750000
 21
202.000000
 39
2
 62
7
  0
LINE
  8
default
  6
CONTINUOUS
 10
123.250000
 20
200.000000
 11
128.750000
 21
200.000000
 39
2
 62
7
  0
LINE
  8
default
  6
CONTINUOUS
 10
124.625000
 20
200.000000
 11
124.625000
 21
202.000000
 39
2
 62
7
  0
LINE
  8
default
  6
CONTINUOUS
 10
127.375000
 20
200.000000
 11
127.375000
 21
202.000000
 39
2
 62
7
  0
LINE
  8
default
  6
CONTINUOUS
 10
123.250000
 20
202.000000
 11
128.750000
 21
202.000000
 39
2
 62
7
  0
LINE
  8
default
  6
CONTINUOUS
 10
124.625000
 20
202.000000
 11
124.625000
 21
204.000000
 39
2
 62
7
  0
LINE
  8
default
  6
CONTINUOUS
 10
127.375000
 20
202.000000
 11
127.375000
 21
204.000000
 39
2
 62
7
  0
LINE
  8
default
  6
CONTINUOUS
 10
123.250000
 20
202.000000
 11
123.250000
 21
204.000000
 39
2
 62
7
  0
LINE
  8
default
  6
CONTINUOUS
 10
123.250000
 20
204.000000
 11
128.750000
 21
204.000000
 39
2
 62
7
  0
LINE
  8
default
  6
CONTINUOUS
 10
128.750000
 20
202.000000
 11
128.750000
 21
204.000000
 39
2
 62
7
  0
LINE
  8
default
  6
CONTINUOUS
 10
124.800000
 20
204.000000
 11
124.800000
 21
209.750000
 39
2
 62
7
  0
LINE
  8
default
  6
CONTINUOUS
 10
127.200000
 20
204.000000
 11
127.200000
 21
209.750000
 39
2
 62
7
  0
LINE
  8
default
  6
CONTINUOUS
 10
124.550000
 20
199.500000
 11
124.550000
 21
209.500000
 39
2
 62
7
  0
LINE
  8
default
  6
CONTINUOUS
 10
127.450000
 20
199.500000
 11
127.450000
 21
209.500000
 39
2
 62
7
  0
TEXT
  8
default
  6
CONTINUOUS
 10
61.208455
 20
190.492987
 40
3.000000
 50
0.000000
 72
0
  7
Courier#0.600000#1.800000
  1
M3x10
 39
2
 62
7
  0
LINE
  8
axes
  6
DASHDOT
 10
66.000000
 20
193.750000
 11
66.000000
 21
214.000000
 39
1
 62
7
  0
LINE
  8
axes
  6
DASHDOT
 10
126.000000
 20
193.750000
 11
126.000000
 21
214.000000
 39
1
 62
7
  0
TEXT
  8
invisible
  6
CONTINUOUS
 10
57.952584
 20
220.831790
 40
3.000000
 50
0.000000
 72
0
  7
Courier#0.600000#1.800000
  1
2 x M3 nut
 39
2
 62
7
  0
ENDSEC
  0
EOF
