  0
SECTION
  2
HEADER
  9
$LIMMIN
 10
0.000000
 20
0.000000
  9
$LIMMAX
 10
143.000000
 20
245.000000
  9
$EXTMIN
 10
0.000000
 20
0.000000
  9
$EXTMAX
 10
143.000000
 20
245.000000
  9
$ANGBASE
 50
0.000000
  9
$ANGDIR
 70
0
  9
$INSUNITS
 70
4
  9
$DIMALT
 70
4
  9
$DIMLUNIT
 70
2
  9
$DIMASZ
 40
3.000000
  9
$DIMTXT
 40
5.000000
  9
$DIMRND
 40
0.010000
  9
$DIMEXE
 40
2.000000
  9
$DIMEXO
 40
2.000000
  9
$DIMAUNIT
 70
0
  9
$DIMADEC
 70
2
  9
$GRIDUNIT
 10
0.001000
 20
0.001000
  9
$PLIMMIN
 10
-30.000000
 20
-20.000000
  9
$PLIMMAX
 10
180.000000
 20
277.000000
  9
$PSVPSCALE
 40
1.000000
  0
ENDSEC
  0
SECTION
  2
TABLES
  0
TABLE
  2
LTYPE
 70
     1
  0
LTYPE
  2
CONTINUOUS
 70
    64
  3
Ausgez
 72
    65
 73
  0
 40
0.000000
  0
ENDTAB
  0
TABLE
  2
LAYER
 70
     1
  0
LAYER
  2
default
 70
    64
 62
7
  6
CONTINUOUS
  0
LAYER
  2
contour
 70
    64
 62
7
  6
CONTINUOUS
  0
LAYER
  2
bend
 70
    64
 62
7
  6
CONTINUOUS
  0
LAYER
  2
dimensions
 70
    64
 62
7
  6
CONTINUOUS
  0
LAYER
  2
text
 70
    64
 62
7
  6
CONTINUOUS
  0
LAYER
  2
axes
 70
    64
 62
7
  6
DASHDOT
  0
ENDTAB
  0
ENDSEC
  0
SECTION
  2
BLOCKS
  0
ENDSEC
  0
SECTION
  2
ENTITIES
  0
TEXT
  8
axes
  6
CONTINUOUS
 10
75.000000
 20
235.000000
 40
10.000000
 50
0.000000
 72
1
  7
Normal#2.000000#6.000000
  1
Ronja Twister Lid
 39
3
 62
7
  0
TEXT
  8
axes
  6
CONTINUOUS
 10
75.000000
 20
221.000000
 40
10.000000
 50
0.000000
 72
1
  7
Normal#2.000000#6.000000
  1
Drilling Template
 39
3
 62
7
  0
CIRCLE
  8
default
  6
CONTINUOUS
 10
24.000000
 20
105.000000
 40
2.150000
 39
3
 62
7
  0
ARC
  8
default
  6
CONTINUOUS
 10
25.000000
 20
190.000000
 40
5.000000
 50
90.000000
 51
180.000000
 39
3
 62
7
  0
ARC
  8
default
  6
CONTINUOUS
 10
25.000000
 20
20.000000
 40
5.000000
 50
180.000000
 51
270.000000
 39
3
 62
7
  0
LINE
  8
default
  6
CONTINUOUS
 10
20.000000
 20
20.000000
 11
20.000000
 21
190.000000
 39
3
 62
7
  0
CIRCLE
  8
default
  6
CONTINUOUS
 10
24.000000
 20
155.000000
 40
2.150000
 39
3
 62
7
  0
CIRCLE
  8
default
  6
CONTINUOUS
 10
24.000000
 20
55.000000
 40
2.150000
 39
3
 62
7
  0
LINE
  8
axes
  6
DASHDOT
 10
24.000000
 20
194.898979
 11
24.000000
 21
15.101021
 39
1
 62
7
  0
TEXT
  8
contour
  6
CONTINUOUS
 10
28.575976
 20
140.974814
 40
10.000000
 50
0.000000
 72
0
  7
Normal#2.000000#6.000000
  1
4.3
 39
3
 62
7
  0
TEXT
  8
contour
  6
CONTINUOUS
 10
117.796523
 20
138.752238
 40
10.000000
 50
0.000000
 72
0
  7
Normal#2.000000#6.000000
  1
4.3
 39
3
 62
7
  0
TEXT
  8
contour
  6
CONTINUOUS
 10
117.479012
 20
40.958899
 40
10.000000
 50
0.000000
 72
0
  7
Normal#2.000000#6.000000
  1
4.3
 39
3
 62
7
  0
TEXT
  8
contour
  6
CONTINUOUS
 10
29.528508
 20
40.323877
 40
10.000000
 50
0.000000
 72
0
  7
Normal#2.000000#6.000000
  1
4.3
 39
3
 62
7
  0
TEXT
  8
contour
  6
CONTINUOUS
 10
30.163530
 20
88.268014
 40
10.000000
 50
0.000000
 72
0
  7
Normal#2.000000#6.000000
  1
4.3
 39
3
 62
7
  0
CIRCLE
  8
default
  6
CONTINUOUS
 10
139.000000
 20
105.000000
 40
2.150000
 39
3
 62
7
  0
ARC
  8
default
  6
CONTINUOUS
 10
138.000000
 20
190.000000
 40
5.000000
 50
0.000000
 51
90.000000
 39
3
 62
7
  0
LINE
  8
default
  6
CONTINUOUS
 10
25.000000
 20
195.000000
 11
138.000000
 21
195.000000
 39
3
 62
7
  0
ARC
  8
default
  6
CONTINUOUS
 10
138.000000
 20
20.000000
 40
5.000000
 50
270.000000
 51
0.000000
 39
3
 62
7
  0
LINE
  8
default
  6
CONTINUOUS
 10
138.000000
 20
15.000000
 11
25.000000
 21
15.000000
 39
3
 62
7
  0
LINE
  8
default
  6
CONTINUOUS
 10
143.000000
 20
190.000000
 11
143.000000
 21
20.000000
 39
3
 62
7
  0
CIRCLE
  8
default
  6
CONTINUOUS
 10
139.000000
 20
155.000000
 40
2.150000
 39
3
 62
7
  0
CIRCLE
  8
default
  6
CONTINUOUS
 10
139.000000
 20
55.000000
 40
2.150000
 39
3
 62
7
  0
LINE
  8
axes
  6
DASHDOT
 10
20.101021
 20
191.000000
 11
142.898979
 21
191.000000
 39
1
 62
7
  0
LINE
  8
axes
  6
DASHDOT
 10
20.101021
 20
19.000000
 11
142.898979
 21
19.000000
 39
1
 62
7
  0
LINE
  8
axes
  6
DASHDOT
 10
139.000000
 20
194.898979
 11
139.000000
 21
15.101021
 39
1
 62
7
  0
LINE
  8
axes
  6
DASHDOT
 10
20.000000
 20
155.000000
 11
143.000000
 21
155.000000
 39
1
 62
7
  0
LINE
  8
axes
  6
DASHDOT
 10
20.000000
 20
105.000000
 11
143.000000
 21
105.000000
 39
1
 62
7
  0
LINE
  8
axes
  6
DASHDOT
 10
20.000000
 20
55.000000
 11
143.000000
 21
55.000000
 39
1
 62
7
  0
TEXT
  8
contour
  6
CONTINUOUS
 10
121.431545
 20
90.173079
 40
10.000000
 50
0.000000
 72
0
  7
Normal#2.000000#6.000000
  1
4.3
 39
3
 62
7
  0
CIRCLE
  8
default
  6
CONTINUOUS
 10
107.000000
 20
191.000000
 40
2.150000
 39
3
 62
7
  0
CIRCLE
  8
default
  6
CONTINUOUS
 10
107.000000
 20
19.000000
 40
2.150000
 39
3
 62
7
  0
LINE
  8
axes
  6
DASHDOT
 10
107.000000
 20
195.000000
 11
107.000000
 21
15.000000
 39
1
 62
7
  0
TEXT
  8
contour
  6
CONTINUOUS
 10
111.446306
 20
175.901007
 40
10.000000
 50
0.000000
 72
0
  7
Normal#2.000000#6.000000
  1
4.3
 39
3
 62
7
  0
TEXT
  8
contour
  6
CONTINUOUS
 10
109.858752
 20
22.225759
 40
10.000000
 50
0.000000
 72
0
  7
Normal#2.000000#6.000000
  1
4.3
 39
3
 62
7
  0
CIRCLE
  8
default
  6
CONTINUOUS
 10
56.000000
 20
191.000000
 40
2.150000
 39
3
 62
7
  0
CIRCLE
  8
default
  6
CONTINUOUS
 10
56.000000
 20
19.000000
 40
2.150000
 39
3
 62
7
  0
LINE
  8
axes
  6
DASHDOT
 10
56.000000
 20
195.000000
 11
56.000000
 21
15.000000
 39
1
 62
7
  0
TEXT
  8
contour
  6
CONTINUOUS
 10
60.644571
 20
177.171051
 40
10.000000
 50
0.000000
 72
0
  7
Normal#2.000000#6.000000
  1
4.3
 39
3
 62
7
  0
TEXT
  8
contour
  6
CONTINUOUS
 10
60.962082
 20
22.860781
 40
10.000000
 50
0.000000
 72
0
  7
Normal#2.000000#6.000000
  1
4.3
 39
3
 62
7
  0
ENDSEC
  0
EOF
