999
dxflib 2.0.4.0
  0
SECTION
  2
HEADER
  9
$ACADVER
  1
AC1015
  9
$HANDSEED
  5
FFFF
  9
$DIMASZ
 40
3.0
  9
$DIMADEC
 70
2
  9
$GRIDUNIT
 10
0.001
 20
20.0
  9
$DIMGAP
 40
0.625
  9
$DIMALT
 70
4
  9
$DIMRND
 40
0.01
  9
$INSUNITS
 70
4
  9
$DIMEXO
 40
2.0
  9
$DIMTXT
 40
5.0
  9
$DIMSTYLE
  2
Standard
  9
$PLIMMIN
 10
0.0
 20
0.0
  9
$PLIMMAX
 10
210.0
 20
297.0
  9
$PINSBASE
 10
31.5
 20
17.5
 30
0.0
  9
$DIMEXE
 40
2.0
  9
$DIMAUNIT
 70
0
  0
ENDSEC
  0
SECTION
  2
TABLES
  0
TABLE
  2
VPORT
  5
8
100
AcDbSymbolTable
 70
1
  0
VPORT
  5
30
100
AcDbSymbolTableRecord
100
AcDbViewportTableRecord
  2
*Active
 70
0
 10
0.0
 20
0.0
 11
1.0
 21
1.0
 12
286.3055555555554861
 22
148.5
 13
0.0
 23
0.0
 14
10.0
 24
10.0
 15
10.0
 25
10.0
 16
0.0
 26
0.0
 36
1.0
 17
0.0
 27
0.0
 37
0.0
 40
297.0
 41
1.92798353909465
 42
50.0
 43
0.0
 44
0.0
 50
0.0
 51
0.0
 71
0
 72
100
 73
1
 74
3
 75
1
 76
1
 77
0
 78
0
281
0
 65
1
110
0.0
120
0.0
130
0.0
111
1.0
121
0.0
131
0.0
112
0.0
122
1.0
132
0.0
 79
0
146
0.0
  0
ENDTAB
  0
TABLE
  2
LTYPE
  5
5
100
AcDbSymbolTable
 70
21
  0
LTYPE
  5
14
100
AcDbSymbolTableRecord
100
AcDbLinetypeTableRecord
  2
ByBlock
 70
0
  3

 72
65
 73
0
 40
0.0
  0
LTYPE
  5
15
100
AcDbSymbolTableRecord
100
AcDbLinetypeTableRecord
  2
ByLayer
 70
0
  3

 72
65
 73
0
 40
0.0
  0
LTYPE
  5
16
100
AcDbSymbolTableRecord
100
AcDbLinetypeTableRecord
  2
CONTINUOUS
 70
0
  3
Solid line
 72
65
 73
0
 40
0.0
  0
LTYPE
  5
31
100
AcDbSymbolTableRecord
100
AcDbLinetypeTableRecord
  2
DOT
 70
0
  3
Dot . . . . . . . . . . . . . . . . . . . . . .
 72
65
 73
2
 40
6.3499999999999996
 49
0.0
 74
0
 49
-6.3499999999999996
 74
0
  0
LTYPE
  5
32
100
AcDbSymbolTableRecord
100
AcDbLinetypeTableRecord
  2
DOT2
 70
0
  3
Dot (.5x) .....................................
 72
65
 73
2
 40
3.1749999999999998
 49
0.0
 74
0
 49
-3.1749999999999998
 74
0
  0
LTYPE
  5
33
100
AcDbSymbolTableRecord
100
AcDbLinetypeTableRecord
  2
DOTX2
 70
0
  3
Dot (2x) .  .  .  .  .  .  .  .  .  .  .  .  .
 72
65
 73
2
 40
12.6999999999999993
 49
0.0
 74
0
 49
-12.6999999999999993
 74
0
  0
LTYPE
  5
34
100
AcDbSymbolTableRecord
100
AcDbLinetypeTableRecord
  2
DASHED
 70
0
  3
Dashed __ __ __ __ __ __ __ __ __ __ __ __ __ _
 72
65
 73
2
 40
19.0500000000000007
 49
12.6999999999999993
 74
0
 49
-6.3499999999999996
 74
0
  0
LTYPE
  5
35
100
AcDbSymbolTableRecord
100
AcDbLinetypeTableRecord
  2
DASHED2
 70
0
  3
Dashed (.5x) _ _ _ _ _ _ _ _ _ _ _ _ _ _ _ _ _
 72
65
 73
2
 40
9.5250000000000004
 49
6.3499999999999996
 74
0
 49
-3.1749999999999998
 74
0
  0
LTYPE
  5
36
100
AcDbSymbolTableRecord
100
AcDbLinetypeTableRecord
  2
DASHEDX2
 70
0
  3
Dashed (2x) ____  ____  ____  ____  ____  ___
 72
65
 73
2
 40
38.1000000000000014
 49
25.3999999999999986
 74
0
 49
-12.6999999999999993
 74
0
  0
LTYPE
  5
37
100
AcDbSymbolTableRecord
100
AcDbLinetypeTableRecord
  2
DASHDOT
 70
0
  3
Dash dot __ . __ . __ . __ . __ . __ . __ . __
 72
65
 73
4
 40
25.3999999999999986
 49
12.6999999999999993
 74
0
 49
-6.3499999999999996
 74
0
 49
0.0
 74
0
 49
-6.3499999999999996
 74
0
  0
LTYPE
  5
38
100
AcDbSymbolTableRecord
100
AcDbLinetypeTableRecord
  2
DASHDOT2
 70
0
  3
Dash dot (.5x) _._._._._._._._._._._._._._._.
 72
65
 73
4
 40
12.6999999999999993
 49
6.3499999999999996
 74
0
 49
-3.1749999999999998
 74
0
 49
0.0
 74
0
 49
-3.1749999999999998
 74
0
  0
LTYPE
  5
39
100
AcDbSymbolTableRecord
100
AcDbLinetypeTableRecord
  2
DASHDOTX2
 70
0
  3
Dash dot (2x) ____  .  ____  .  ____  .  ___
 72
65
 73
4
 40
50.7999999999999972
 49
25.3999999999999986
 74
0
 49
-12.6999999999999993
 74
0
 49
0.0
 74
0
 49
-12.6999999999999993
 74
0
  0
LTYPE
  5
3A
100
AcDbSymbolTableRecord
100
AcDbLinetypeTableRecord
  2
DIVIDE
 70
0
  3
Divide ____ . . ____ . . ____ . . ____ . . ____
 72
65
 73
6
 40
31.75
 49
12.6999999999999993
 74
0
 49
-6.3499999999999996
 74
0
 49
0.0
 74
0
 49
-6.3499999999999996
 74
0
 49
0.0
 74
0
 49
-6.3499999999999996
 74
0
  0
LTYPE
  5
3B
100
AcDbSymbolTableRecord
100
AcDbLinetypeTableRecord
  2
DIVIDE2
 70
0
  3
Divide (.5x) __..__..__..__..__..__..__..__.._
 72
65
 73
6
 40
15.875
 49
6.3499999999999996
 74
0
 49
-3.1749999999999998
 74
0
 49
0.0
 74
0
 49
-3.1749999999999998
 74
0
 49
0.0
 74
0
 49
-3.1749999999999998
 74
0
  0
LTYPE
  5
3C
100
AcDbSymbolTableRecord
100
AcDbLinetypeTableRecord
  2
DIVIDEX2
 70
0
  3
Divide (2x) ________  .  .  ________  .  .  _
 72
65
 73
6
 40
63.5
 49
25.3999999999999986
 74
0
 49
-12.6999999999999993
 74
0
 49
0.0
 74
0
 49
-12.6999999999999993
 74
0
 49
0.0
 74
0
 49
-12.6999999999999993
 74
0
  0
LTYPE
  5
3D
100
AcDbSymbolTableRecord
100
AcDbLinetypeTableRecord
  2
CENTER
 70
0
  3
Center ____ _ ____ _ ____ _ ____ _ ____ _ ____
 72
65
 73
4
 40
50.7999999999999972
 49
31.75
 74
0
 49
-6.3499999999999996
 74
0
 49
6.3499999999999996
 74
0
 49
-6.3499999999999996
 74
0
  0
LTYPE
  5
3E
100
AcDbSymbolTableRecord
100
AcDbLinetypeTableRecord
  2
CENTER2
 70
0
  3
Center (.5x) ___ _ ___ _ ___ _ ___ _ ___ _ ___
 72
65
 73
4
 40
28.5749999999999993
 49
19.0500000000000007
 74
0
 49
-3.1749999999999998
 74
0
 49
3.1749999999999998
 74
0
 49
-3.1749999999999998
 74
0
  0
LTYPE
  5
3F
100
AcDbSymbolTableRecord
100
AcDbLinetypeTableRecord
  2
CENTERX2
 70
0
  3
Center (2x) ________  __  ________  __  _____
 72
65
 73
4
 40
101.5999999999999943
 49
63.5
 74
0
 49
-12.6999999999999993
 74
0
 49
12.6999999999999993
 74
0
 49
-12.6999999999999993
 74
0
  0
LTYPE
  5
40
100
AcDbSymbolTableRecord
100
AcDbLinetypeTableRecord
  2
BORDER
 70
0
  3
Border __ __ . __ __ . __ __ . __ __ . __ __ .
 72
65
 73
6
 40
44.4500000000000028
 49
12.6999999999999993
 74
0
 49
-6.3499999999999996
 74
0
 49
12.6999999999999993
 74
0
 49
-6.3499999999999996
 74
0
 49
0.0
 74
0
 49
-6.3499999999999996
 74
0
  0
LTYPE
  5
41
100
AcDbSymbolTableRecord
100
AcDbLinetypeTableRecord
  2
BORDER2
 70
0
  3
Border (.5x) __.__.__.__.__.__.__.__.__.__.__.
 72
65
 73
6
 40
22.2250000000000014
 49
6.3499999999999996
 74
0
 49
-3.1749999999999998
 74
0
 49
6.3499999999999996
 74
0
 49
-3.1749999999999998
 74
0
 49
0.0
 74
0
 49
-3.1749999999999998
 74
0
  0
LTYPE
  5
42
100
AcDbSymbolTableRecord
100
AcDbLinetypeTableRecord
  2
BORDERX2
 70
0
  3
Border (2x) ____  ____  .  ____  ____  .  ___
 72
65
 73
6
 40
88.9000000000000057
 49
25.3999999999999986
 74
0
 49
-12.6999999999999993
 74
0
 49
25.3999999999999986
 74
0
 49
-12.6999999999999993
 74
0
 49
0.0
 74
0
 49
-12.6999999999999993
 74
0
  0
ENDTAB
  0
TABLE
  2
LAYER
  5
2
100
AcDbSymbolTable
 70
9
  0
LAYER
  5
10
100
AcDbSymbolTableRecord
100
AcDbLayerTableRecord
  2
0
 70
0
 62
7
  6
CONTINUOUS
370
13
390
F
  0
LAYER
  5
43
100
AcDbSymbolTableRecord
100
AcDbLayerTableRecord
  2
contour
 70
0
 62
7
  6
CONTINUOUS
370
35
390
F
  0
LAYER
  5
44
100
AcDbSymbolTableRecord
100
AcDbLayerTableRecord
  2
bend
 70
0
 62
7
  6
DASHED
370
25
390
F
  0
LAYER
  5
45
100
AcDbSymbolTableRecord
100
AcDbLayerTableRecord
  2
dimensions
 70
0
 62
7
  6
CONTINUOUS
390
F
  0
LAYER
  5
46
100
AcDbSymbolTableRecord
100
AcDbLayerTableRecord
  2
text
 70
0
 62
7
  6
CONTINUOUS
390
F
  0
LAYER
  5
47
100
AcDbSymbolTableRecord
100
AcDbLayerTableRecord
  2
axis
 70
0
 62
7
  6
DASHDOT
390
F
  0
LAYER
  5
48
100
AcDbSymbolTableRecord
100
AcDbLayerTableRecord
  2
helper
 70
0
 62
7
  6
CONTINUOUS
370
13
390
F
  0
LAYER
  5
49
100
AcDbSymbolTableRecord
100
AcDbLayerTableRecord
  2
noname
 70
0
 62
7
  6
CONTINUOUS
370
13
390
F
  0
LAYER
  5
4A
100
AcDbSymbolTableRecord
100
AcDbLayerTableRecord
  2
logo
 70
0
 62
7
  6
CONTINUOUS
370
13
390
F
  0
ENDTAB
  0
TABLE
  2
STYLE
  5
3
100
AcDbSymbolTable
 70
1
  0
STYLE
  5
11
100
AcDbSymbolTableRecord
100
AcDbTextStyleTableRecord
  2
Standard
 70
0
 40
0.0
 41
1.0
 50
0.0
 71
0
 42
2.5
  3
txt
  4

  0
ENDTAB
  0
TABLE
  2
VIEW
  5
6
100
AcDbSymbolTable
 70
0
  0
ENDTAB
  0
TABLE
  2
UCS
  5
7
100
AcDbSymbolTable
 70
0
  0
ENDTAB
  0
TABLE
  2
APPID
  5
9
100
AcDbSymbolTable
 70
1
  0
APPID
  5
12
100
AcDbSymbolTableRecord
100
AcDbRegAppTableRecord
  2
ACAD
 70
0
  0
ENDTAB
  0
TABLE
  2
DIMSTYLE
  5
A
100
AcDbSymbolTable
 70
1
100
AcDbDimStyleTable
 71
0
  0
DIMSTYLE
105
27
100
AcDbSymbolTableRecord
100
AcDbDimStyleTableRecord
  2
Standard
 41
2.5
 42
0.625
 43
3.75
 44
1.25
 70
0
 73
0
 74
0
 77
1
 78
8
140
2.5
141
2.5
143
0.03937007874016
147
0.625
171
3
172
1
271
2
272
2
274
3
278
44
283
0
284
8
340
11
  0
ENDTAB
  0
TABLE
  2
BLOCK_RECORD
  5
1
100
AcDbSymbolTable
 70
1
  0
BLOCK_RECORD
  5
1F
100
AcDbSymbolTableRecord
100
AcDbBlockTableRecord
  2
*Model_Space
340
22
  0
BLOCK_RECORD
  5
1B
100
AcDbSymbolTableRecord
100
AcDbBlockTableRecord
  2
*Paper_Space
340
1E
  0
BLOCK_RECORD
  5
23
100
AcDbSymbolTableRecord
100
AcDbBlockTableRecord
  2
*Paper_Space0
340
26
  0
ENDTAB
  0
ENDSEC
  0
SECTION
  2
BLOCKS
  0
BLOCK
  5
20
100
AcDbEntity
  8
0
100
AcDbBlockBegin
  2
*Model_Space
 70
0
 10
0.0
 20
0.0
 30
0.0
  3
*Model_Space
  1

  0
ENDBLK
  5
21
100
AcDbEntity
  8
0
100
AcDbBlockEnd
  0
BLOCK
  5
1C
100
AcDbEntity
 67
1
  8
0
100
AcDbBlockBegin
  2
*Paper_Space
 70
0
 10
0.0
 20
0.0
 30
0.0
  3
*Paper_Space
  1

  0
ENDBLK
  5
1D
100
AcDbEntity
 67
1
  8
0
100
AcDbBlockEnd
  0
BLOCK
  5
24
100
AcDbEntity
  8
0
100
AcDbBlockBegin
  2
*Paper_Space0
 70
0
 10
0.0
 20
0.0
 30
0.0
  3
*Paper_Space0
  1

  0
ENDBLK
  5
25
100
AcDbEntity
  8
0
100
AcDbBlockEnd
  0
ENDSEC
  0
SECTION
  2
ENTITIES
  0
LINE
  5
4B
100
AcDbEntity
100
AcDbLine
  8
0
 62
7
370
0
  6
CONTINUOUS
 10
22.0
 20
169.0
 30
0.0
 11
125.0
 21
169.0
 31
0.0
  0
ARC
  5
4C
100
AcDbEntity
  8
contour
 62
256
370
-1
  6
ByLayer
100
AcDbCircle
 10
120.0
 20
245.0
 30
0.0
 40
5.0
100
AcDbArc
 50
0.0
 51
90.0
  0
LINE
  5
4D
100
AcDbEntity
100
AcDbLine
  8
contour
 62
256
370
-1
  6
ByLayer
 10
125.0
 20
200.0
 30
0.0
 11
125.0
 21
245.0
 31
0.0
  0
ARC
  5
4E
100
AcDbEntity
  8
contour
 62
256
370
-1
  6
ByLayer
100
AcDbCircle
 10
170.0
 20
195.0
 30
0.0
 40
5.0
100
AcDbArc
 50
0.0
 51
90.0
  0
LINE
  5
4F
100
AcDbEntity
100
AcDbLine
  8
contour
 62
256
370
-1
  6
ByLayer
 10
170.0
 20
200.0
 30
0.0
 11
125.0
 21
200.0
 31
0.0
  0
ARC
  5
50
100
AcDbEntity
  8
contour
 62
256
370
-1
  6
ByLayer
100
AcDbCircle
 10
170.0
 20
45.0
 30
0.0
 40
5.0
100
AcDbArc
 50
270.0
 51
0.0
  0
LINE
  5
51
100
AcDbEntity
100
AcDbLine
  8
contour
 62
256
370
-1
  6
ByLayer
 10
125.0
 20
40.0
 30
0.0
 11
170.0
 21
40.0
 31
0.0
  0
ARC
  5
52
100
AcDbEntity
  8
contour
 62
256
370
-1
  6
ByLayer
100
AcDbCircle
 10
120.0
 20
-5.0
 30
0.0
 40
5.0
100
AcDbArc
 50
270.0
 51
0.0
  0
LINE
  5
53
100
AcDbEntity
100
AcDbLine
  8
contour
 62
256
370
-1
  6
ByLayer
 10
125.0
 20
-5.0
 30
0.0
 11
125.0
 21
40.0
 31
0.0
  0
LINE
  5
54
100
AcDbEntity
100
AcDbLine
  8
contour
 62
256
370
-1
  6
ByLayer
 10
175.0
 20
195.0
 30
0.0
 11
175.0
 21
45.0
 31
0.0
  0
ARC
  5
55
100
AcDbEntity
  8
contour
 62
256
370
-1
  6
ByLayer
100
AcDbCircle
 10
27.0
 20
245.0
 30
0.0
 40
5.0
100
AcDbArc
 50
90.0
 51
180.0
  0
LINE
  5
56
100
AcDbEntity
100
AcDbLine
  8
contour
 62
256
370
-1
  6
ByLayer
 10
22.0
 20
245.0
 30
0.0
 11
22.0
 21
200.0
 31
0.0
  0
LINE
  5
57
100
AcDbEntity
100
AcDbLine
  8
contour
 62
256
370
-1
  6
ByLayer
 10
120.0
 20
250.0
 30
0.0
 11
27.0
 21
250.0
 31
0.0
  0
ARC
  5
58
100
AcDbEntity
  8
contour
 62
256
370
-1
  6
ByLayer
100
AcDbCircle
 10
-23.0
 20
195.0
 30
0.0
 40
5.0
100
AcDbArc
 50
90.0
 51
180.0
  0
LINE
  5
59
100
AcDbEntity
100
AcDbLine
  8
contour
 62
256
370
-1
  6
ByLayer
 10
22.0
 20
200.0
 30
0.0
 11
-23.0
 21
200.0
 31
0.0
  0
ARC
  5
5A
100
AcDbEntity
  8
contour
 62
256
370
-1
  6
ByLayer
100
AcDbCircle
 10
-23.0
 20
45.0
 30
0.0
 40
5.0
100
AcDbArc
 50
180.0
 51
270.0
  0
LINE
  5
5B
100
AcDbEntity
100
AcDbLine
  8
contour
 62
256
370
-1
  6
ByLayer
 10
-23.0
 20
40.0
 30
0.0
 11
22.0
 21
40.0
 31
0.0
  0
ARC
  5
5C
100
AcDbEntity
  8
contour
 62
256
370
-1
  6
ByLayer
100
AcDbCircle
 10
27.0
 20
-5.0
 30
0.0
 40
5.0
100
AcDbArc
 50
180.0
 51
270.0
  0
LINE
  5
5D
100
AcDbEntity
100
AcDbLine
  8
contour
 62
256
370
-1
  6
ByLayer
 10
22.0
 20
40.0
 30
0.0
 11
22.0
 21
-5.0
 31
0.0
  0
LINE
  5
5E
100
AcDbEntity
100
AcDbLine
  8
contour
 62
256
370
-1
  6
ByLayer
 10
27.0
 20
-10.0
 30
0.0
 11
120.0
 21
-10.0
 31
0.0
  0
LINE
  5
5F
100
AcDbEntity
100
AcDbLine
  8
contour
 62
256
370
-1
  6
ByLayer
 10
-28.0
 20
195.0
 30
0.0
 11
-28.0
 21
45.0
 31
0.0
  0
LINE
  5
60
100
AcDbEntity
100
AcDbLine
  8
helper
 62
256
370
-1
  6
ByLayer
 10
-18.0
 20
140.0
 30
0.0
 11
22.0
 21
140.0
 31
0.0
  0
LINE
  5
61
100
AcDbEntity
100
AcDbLine
  8
helper
 62
256
370
-1
  6
ByLayer
 10
7.0
 20
200.0
 30
0.0
 11
7.0
 21
40.0
 31
0.0
  0
LINE
  5
62
100
AcDbEntity
100
AcDbLine
  8
helper
 62
256
370
-1
  6
ByLayer
 10
22.0
 20
188.0
 30
0.0
 11
125.0
 21
188.0
 31
0.0
  0
LINE
  5
63
100
AcDbEntity
100
AcDbLine
  8
helper
 62
256
370
-1
  6
ByLayer
 10
22.0
 20
215.0
 30
0.0
 11
125.0
 21
215.0
 31
0.0
  0
LINE
  5
64
100
AcDbEntity
100
AcDbLine
  8
helper
 62
256
370
-1
  6
ByLayer
 10
100.0
 20
200.0
 30
0.0
 11
100.0
 21
169.0
 31
0.0
  0
LINE
  5
65
100
AcDbEntity
100
AcDbLine
  8
helper
 62
256
370
-1
  6
ByLayer
 10
88.0
 20
200.0
 30
0.0
 11
88.0
 21
169.0
 31
0.0
  0
LINE
  5
66
100
AcDbEntity
100
AcDbLine
  8
helper
 62
256
370
-1
  6
ByLayer
 10
76.0
 20
200.0
 30
0.0
 11
76.0
 21
169.0
 31
0.0
  0
LINE
  5
67
100
AcDbEntity
100
AcDbLine
  8
helper
 62
256
370
-1
  6
ByLayer
 10
64.0
 20
200.0
 30
0.0
 11
64.0
 21
169.0
 31
0.0
  0
LINE
  5
68
100
AcDbEntity
100
AcDbLine
  8
helper
 62
256
370
-1
  6
ByLayer
 10
62.0
 20
40.0
 30
0.0
 11
62.0
 21
0.0
 31
0.0
  0
LINE
  5
69
100
AcDbEntity
100
AcDbLine
  8
helper
 62
256
370
-1
  6
ByLayer
 10
72.0
 20
240.0
 30
0.0
 11
72.0
 21
200.0
 31
0.0
  0
LINE
  5
6A
100
AcDbEntity
100
AcDbLine
  8
helper
 62
256
370
-1
  6
ByLayer
 10
102.0
 20
240.0
 30
0.0
 11
102.0
 21
200.0
 31
0.0
  0
LINE
  5
6B
100
AcDbEntity
100
AcDbLine
  8
helper
 62
256
370
-1
  6
ByLayer
 10
82.0
 20
40.0
 30
0.0
 11
82.0
 21
0.0
 31
0.0
  0
LINE
  5
6C
100
AcDbEntity
100
AcDbLine
  8
helper
 62
256
370
-1
  6
ByLayer
 10
22.0
 20
25.0
 30
0.0
 11
125.0
 21
25.0
 31
0.0
  0
LINE
  5
6D
100
AcDbEntity
100
AcDbLine
  8
helper
 62
256
370
-1
  6
ByLayer
 10
42.0
 20
40.0
 30
0.0
 11
42.0
 21
0.0
 31
0.0
  0
LINE
  5
6E
100
AcDbEntity
100
AcDbLine
  8
helper
 62
256
370
-1
  6
ByLayer
 10
42.0
 20
240.0
 30
0.0
 11
42.0
 21
200.0
 31
0.0
  0
LINE
  5
6F
100
AcDbEntity
100
AcDbLine
  8
helper
 62
256
370
-1
  6
ByLayer
 10
102.0
 20
40.0
 30
0.0
 11
102.0
 21
0.0
 31
0.0
  0
LINE
  5
70
100
AcDbEntity
100
AcDbLine
  8
helper
 62
256
370
-1
  6
ByLayer
 10
46.4500000000000028
 20
40.0
 30
0.0
 11
46.4500000000000028
 21
200.0
 31
0.0
  0
LINE
  5
71
100
AcDbEntity
100
AcDbLine
  8
helper
 62
256
370
-1
  6
ByLayer
 10
117.5499999999999972
 20
40.0
 30
0.0
 11
117.5499999999999972
 21
200.0
 31
0.0
  0
LINE
  5
72
100
AcDbEntity
100
AcDbLine
  8
helper
 62
256
370
-1
  6
ByLayer
 10
22.0
 20
165.6999999999999886
 30
0.0
 11
125.0
 21
165.6999999999999886
 31
0.0
  0
LINE
  5
73
100
AcDbEntity
100
AcDbLine
  8
helper
 62
256
370
-1
  6
ByLayer
 10
125.0
 20
74.2999999999999972
 30
0.0
 11
22.0
 21
74.2999999999999972
 31
0.0
  0
LINE
  5
74
100
AcDbEntity
100
AcDbLine
  8
bend
 62
256
370
-1
  6
ByLayer
 10
125.0
 20
200.0
 30
0.0
 11
125.0
 21
40.0
 31
0.0
  0
LINE
  5
75
100
AcDbEntity
100
AcDbLine
  8
bend
 62
256
370
-1
  6
ByLayer
 10
22.0
 20
200.0
 30
0.0
 11
125.0
 21
200.0
 31
0.0
  0
LINE
  5
76
100
AcDbEntity
100
AcDbLine
  8
bend
 62
256
370
-1
  6
ByLayer
 10
125.0
 20
240.0
 30
0.0
 11
22.0
 21
240.0
 31
0.0
  0
LINE
  5
77
100
AcDbEntity
100
AcDbLine
  8
bend
 62
256
370
-1
  6
ByLayer
 10
22.0
 20
0.0
 30
0.0
 11
125.0
 21
0.0
 31
0.0
  0
LINE
  5
78
100
AcDbEntity
100
AcDbLine
  8
bend
 62
256
370
-1
  6
ByLayer
 10
22.0
 20
40.0
 30
0.0
 11
22.0
 21
200.0
 31
0.0
  0
LINE
  5
79
100
AcDbEntity
100
AcDbLine
  8
bend
 62
256
370
-1
  6
ByLayer
 10
-18.0
 20
200.0
 30
0.0
 11
-18.0
 21
40.0
 31
0.0
  0
LINE
  5
7A
100
AcDbEntity
100
AcDbLine
  8
bend
 62
256
370
-1
  6
ByLayer
 10
125.0
 20
40.0
 30
0.0
 11
22.0
 21
40.0
 31
0.0
  0
LINE
  5
7B
100
AcDbEntity
100
AcDbLine
  8
bend
 62
256
370
-1
  6
ByLayer
 10
165.0
 20
200.0
 30
0.0
 11
165.0
 21
40.0
 31
0.0
  0
CIRCLE
  5
7C
100
AcDbEntity
100
AcDbCircle
  8
contour
 62
256
370
-1
  6
ByLayer
 10
88.0
 20
188.0
 30
0.0
 40
3.0
  0
CIRCLE
  5
7D
100
AcDbEntity
100
AcDbCircle
  8
contour
 62
256
370
-1
  6
ByLayer
 10
76.0
 20
188.0
 30
0.0
 40
3.0
  0
CIRCLE
  5
7E
100
AcDbEntity
100
AcDbCircle
  8
contour
 62
256
370
-1
  6
ByLayer
 10
64.0
 20
188.0
 30
0.0
 40
3.0
  0
CIRCLE
  5
7F
100
AcDbEntity
100
AcDbCircle
  8
contour
 62
256
370
-1
  6
ByLayer
 10
42.0
 20
215.0
 30
0.0
 40
2.5
  0
CIRCLE
  5
80
100
AcDbEntity
100
AcDbCircle
  8
contour
 62
256
370
-1
  6
ByLayer
 10
102.0
 20
215.0
 30
0.0
 40
2.5
  0
CIRCLE
  5
81
100
AcDbEntity
100
AcDbCircle
  8
contour
 62
256
370
-1
  6
ByLayer
 10
72.0
 20
215.0
 30
0.0
 40
2.5
  0
CIRCLE
  5
82
100
AcDbEntity
100
AcDbCircle
  8
contour
 62
256
370
-1
  6
ByLayer
 10
82.0
 20
25.0
 30
0.0
 40
4.0
  0
CIRCLE
  5
83
100
AcDbEntity
100
AcDbCircle
  8
contour
 62
256
370
-1
  6
ByLayer
 10
102.0
 20
25.0
 30
0.0
 40
3.25
  0
CIRCLE
  5
84
100
AcDbEntity
100
AcDbCircle
  8
contour
 62
256
370
-1
  6
ByLayer
 10
62.0
 20
25.0
 30
0.0
 40
3.25
  0
CIRCLE
  5
85
100
AcDbEntity
100
AcDbCircle
  8
contour
 62
256
370
-1
  6
ByLayer
 10
42.0
 20
25.0
 30
0.0
 40
4.25
  0
CIRCLE
  5
86
100
AcDbEntity
100
AcDbCircle
  8
contour
 62
256
370
-1
  6
ByLayer
 10
100.0
 20
188.0
 30
0.0
 40
1.5
  0
CIRCLE
  5
87
100
AcDbEntity
100
AcDbCircle
  8
contour
 62
256
370
-1
  6
ByLayer
 10
7.0
 20
140.0
 30
0.0
 40
1.6499999999999999
  0
MTEXT
  5
88
100
AcDbEntity
100
AcDbMText
  8
contour
 62
256
370
-1
  6
ByLayer
 10
80.0
 20
265.0
 30
0.0
 40
7.0
 41
100.0
 71
8
 72
2
  1
Ronja\~Twister\~Interface\~Box\~&\~Lid
  7
Normal
 50
0.0
 73
0
 44
1.0
  0
MTEXT
  5
89
100
AcDbEntity
100
AcDbMText
  8
contour
 62
256
370
-1
  6
ByLayer
 10
80.0
 20
257.0
 30
0.0
 40
7.0
 41
100.0
 71
8
 72
2
  1
Drilling\~Template
  7
Normal
 50
0.0
 73
0
 44
1.0
  0
MTEXT
  5
8A
100
AcDbEntity
100
AcDbMText
  8
contour
 62
256
370
-1
  6
ByLayer
 10
41.8228349999999978
 20
223.7244090000000085
 30
0.0
 40
7.0
 41
100.0
 71
8
 72
2
  1
5
  7
Normal
 50
0.0
 73
0
 44
1.0
  0
MTEXT
  5
8B
100
AcDbEntity
100
AcDbMText
  8
contour
 62
256
370
-1
  6
ByLayer
 10
71.8346460000000064
 20
224.5039370000000076
 30
0.0
 40
7.0
 41
100.0
 71
8
 72
2
  1
5
  7
Normal
 50
0.0
 73
0
 44
1.0
  0
MTEXT
  5
8C
100
AcDbEntity
100
AcDbMText
  8
contour
 62
256
370
-1
  6
ByLayer
 10
102.6259840000000025
 20
224.1141729999999939
 30
0.0
 40
7.0
 41
100.0
 71
8
 72
2
  1
5
  7
Normal
 50
0.0
 73
0
 44
1.0
  0
MTEXT
  5
8D
100
AcDbEntity
100
AcDbMText
  8
contour
 62
256
370
-1
  6
ByLayer
 10
81.5787399999999963
 20
8.9645670000000006
 30
0.0
 40
7.0
 41
100.0
 71
8
 72
2
  1
8
  7
Normal
 50
0.0
 73
0
 44
1.0
  0
MTEXT
  5
8E
100
AcDbEntity
100
AcDbMText
  8
contour
 62
256
370
-1
  6
ByLayer
 10
42.2125979999999998
 20
8.1850389999999997
 30
0.0
 40
7.0
 41
100.0
 71
8
 72
2
  1
8.5
  7
Normal
 50
0.0
 73
0
 44
1.0
  0
MTEXT
  5
8F
100
AcDbEntity
100
AcDbMText
  8
contour
 62
256
370
-1
  6
ByLayer
 10
62.0905509999999978
 20
8.9645670000000006
 30
0.0
 40
7.0
 41
100.0
 71
8
 72
2
  1
6.5
  7
Normal
 50
0.0
 73
0
 44
1.0
  0
MTEXT
  5
90
100
AcDbEntity
100
AcDbMText
  8
contour
 62
256
370
-1
  6
ByLayer
 10
102.236220000000003
 20
8.5748029999999993
 30
0.0
 40
7.0
 41
100.0
 71
8
 72
2
  1
6.5
  7
Normal
 50
0.0
 73
0
 44
1.0
  0
MTEXT
  5
91
100
AcDbEntity
100
AcDbMText
  8
contour
 62
256
370
-1
  6
ByLayer
 10
6.3543310000000002
 20
123.5551179999999931
 30
0.0
 40
7.0
 41
100.0
 71
8
 72
2
  1
3.3
  7
Normal
 50
0.0
 73
0
 44
1.0
  0
MTEXT
  5
92
100
AcDbEntity
100
AcDbMText
  8
contour
 62
256
370
-1
  6
ByLayer
 10
63.6496059999999986
 20
175.0039370000000076
 30
0.0
 40
7.0
 41
100.0
 71
8
 72
2
  1
6
  7
Normal
 50
0.0
 73
0
 44
1.0
  0
MTEXT
  5
93
100
AcDbEntity
100
AcDbMText
  8
contour
 62
256
370
-1
  6
ByLayer
 10
75.7322829999999954
 20
175.393700999999993
 30
0.0
 40
7.0
 41
100.0
 71
8
 72
2
  1
6
  7
Normal
 50
0.0
 73
0
 44
1.0
  0
MTEXT
  5
94
100
AcDbEntity
100
AcDbMText
  8
contour
 62
256
370
-1
  6
ByLayer
 10
88.5944879999999984
 20
175.393700999999993
 30
0.0
 40
7.0
 41
100.0
 71
8
 72
2
  1
6
  7
Normal
 50
0.0
 73
0
 44
1.0
  0
MTEXT
  5
95
100
AcDbEntity
100
AcDbMText
  8
contour
 62
256
370
-1
  6
ByLayer
 10
100.6771650000000022
 20
176.1732279999999946
 30
0.0
 40
7.0
 41
100.0
 71
8
 72
2
  1
3
  7
Normal
 50
0.0
 73
0
 44
1.0
  0
CIRCLE
  5
96
100
AcDbEntity
100
AcDbCircle
  8
contour
 62
256
370
-1
  6
ByLayer
 10
46.4500000000000028
 20
165.6999999999999886
 30
0.0
 40
2.1499999999999999
  0
CIRCLE
  5
97
100
AcDbEntity
100
AcDbCircle
  8
contour
 62
256
370
-1
  6
ByLayer
 10
117.5499999999999972
 20
165.6999999999999886
 30
0.0
 40
2.1499999999999999
  0
CIRCLE
  5
98
100
AcDbEntity
100
AcDbCircle
  8
contour
 62
256
370
-1
  6
ByLayer
 10
117.5499999999999972
 20
74.2999999999999972
 30
0.0
 40
2.1499999999999999
  0
CIRCLE
  5
99
100
AcDbEntity
100
AcDbCircle
  8
contour
 62
256
370
-1
  6
ByLayer
 10
46.4500000000000028
 20
74.2999999999999972
 30
0.0
 40
2.1499999999999999
  0
MTEXT
  5
9A
100
AcDbEntity
100
AcDbMText
  8
contour
 62
256
370
-1
  6
ByLayer
 10
55.6314679999999981
 20
154.5318550000000073
 30
0.0
 40
7.0
 41
100.0
 71
8
 72
2
  1
4.3
  7
Normal
 50
0.0
 73
0
 44
1.0
  0
MTEXT
  5
9B
100
AcDbEntity
100
AcDbMText
  8
contour
 62
256
370
-1
  6
ByLayer
 10
108.4813620000000043
 20
78.5021820000000048
 30
0.0
 40
7.0
 41
100.0
 71
8
 72
2
  1
4.3
  7
Normal
 50
0.0
 73
0
 44
1.0
  0
MTEXT
  5
9C
100
AcDbEntity
100
AcDbMText
  8
contour
 62
256
370
-1
  6
ByLayer
 10
57.7949139999999986
 20
78.5021820000000048
 30
0.0
 40
7.0
 41
100.0
 71
8
 72
2
  1
4.3
  7
Normal
 50
0.0
 73
0
 44
1.0
  0
MTEXT
  5
9D
100
AcDbEntity
100
AcDbMText
  8
contour
 62
256
370
-1
  6
ByLayer
 10
40.2006960000000007
 20
157.2452000000000112
 30
0.0
 40
5.0
 41
100.0
 71
7
 72
2
  1
A
  7
Normal
 50
0.0
 73
0
 44
1.0
  0
MTEXT
  5
9E
100
AcDbEntity
100
AcDbMText
  8
contour
 62
256
370
-1
  6
ByLayer
 10
39.8449379999999991
 20
77.1995670000000018
 30
0.0
 40
5.0
 41
100.0
 71
7
 72
2
  1
A
  7
Normal
 50
0.0
 73
0
 44
1.0
  0
MTEXT
  5
9F
100
AcDbEntity
100
AcDbMText
  8
contour
 62
256
370
-1
  6
ByLayer
 10
112.4196450000000027
 20
66.1710570000000047
 30
0.0
 40
5.0
 41
100.0
 71
7
 72
2
  1
A
  7
Normal
 50
0.0
 73
0
 44
1.0
  0
LINE
  5
A0
100
AcDbEntity
100
AcDbLine
  8
contour
 62
7
370
5
  6
CONTINUOUS
 10
82.0
 20
159.0
 30
0.0
 11
82.0
 21
179.0
 31
0.0
  0
CIRCLE
  5
A1
100
AcDbEntity
100
AcDbCircle
  8
contour
 62
256
370
-1
  6
ByLayer
 10
82.0
 20
169.0
 30
0.0
 40
1.6499999999999999
  0
MTEXT
  5
A2
100
AcDbEntity
100
AcDbMText
  8
contour
 62
256
370
-1
  6
ByLayer
 10
87.0550842954594657
 20
165.506341751295821
 30
0.0
 40
4.0
 41
100.0
 71
5
 72
2
  1
3.3
  7
normallatin1
 50
0.0
 73
0
 44
1.0
  0
MTEXT
  5
A3
100
AcDbEntity
100
AcDbMText
  8
contour
 62
256
370
-1
  6
ByLayer
 10
70.0660616778690155
 20
170.4075821054345283
 30
0.0
 40
2.0
 41
100.0
 71
5
 72
2
  1
Terminal\~block
  7
normallatin1
 50
0.0
 73
0
 44
1.0
  0
MTEXT
  5
A4
100
AcDbEntity
100
AcDbMText
  8
contour
 62
256
370
-1
  6
ByLayer
 10
80.5606234012352473
 20
58.5556383055274665
 30
0.0
 40
5.0
 41
100.0
 71
5
 72
2
  1
Drill\~'A'\~holes\Pfor\~PCB\~only.
  7
normallatin1
 50
0.0
 73
0
 44
1.0
  0
MTEXT
  5
A5
100
AcDbEntity
100
AcDbMText
  8
contour
 62
256
370
-1
  6
ByLayer
 10
109.4590695954116626
 20
169.7368393242922764
 30
0.0
 40
7.0
 41
100.0
 71
8
 72
2
  1
4.3
  7
Normal
 50
0.0
 73
0
 44
1.0
  0
MTEXT
  5
A6
100
AcDbEntity
100
AcDbMText
  8
contour
 62
256
370
-1
  6
ByLayer
 10
119.4234808988529011
 20
170.8000105380572791
 30
0.0
 40
5.0
 41
100.0
 71
7
 72
2
  1
A
  7
Normal
 50
0.0
 73
0
 44
1.0
  0
LINE
  5
A7
100
AcDbEntity
100
AcDbLine
  8
0
 62
256
370
-1
  6
ByLayer
 10
93.7279305836965193
 20
86.8097788681877489
 30
0.0
 11
93.7279305836965193
 21
86.8097788681877489
 31
0.0
  0
LINE
  5
A8
100
AcDbEntity
100
AcDbLine
  8
0
 62
256
370
-1
  6
ByLayer
 10
93.7279305836965335
 20
112.1362215315642459
 30
0.0
 11
93.7279305836965335
 21
112.1362215315642459
 31
0.0
  0
CIRCLE
  5
A9
100
AcDbEntity
100
AcDbCircle
  8
0
 62
256
370
-1
  6
ByLayer
 10
99.9525886688737444
 20
95.7230001998759974
 30
0.0
 40
0.5
  0
CIRCLE
  5
AA
100
AcDbEntity
100
AcDbCircle
  8
0
 62
256
370
-1
  6
ByLayer
 10
97.4525886688737444
 20
95.7230001998759974
 30
0.0
 40
0.5
  0
CIRCLE
  5
AB
100
AcDbEntity
100
AcDbCircle
  8
0
 62
256
370
-1
  6
ByLayer
 10
102.4525886688737444
 20
95.7230001998759974
 30
0.0
 40
0.5
  0
CIRCLE
  5
AC
100
AcDbEntity
100
AcDbCircle
  8
0
 62
256
370
-1
  6
ByLayer
 10
104.8096112728289029
 20
96.5563335332093402
 30
0.0
 40
0.5
  0
CIRCLE
  5
AD
100
AcDbEntity
100
AcDbCircle
  8
0
 62
256
370
-1
  6
ByLayer
 10
106.1190682750262084
 20
98.6859631628389877
 30
0.0
 40
0.5
  0
CIRCLE
  5
AE
100
AcDbEntity
100
AcDbCircle
  8
0
 62
256
370
-1
  6
ByLayer
 10
106.2025886688737444
 20
101.1845676421056908
 30
0.0
 40
0.5
  0
CIRCLE
  5
AF
100
AcDbEntity
100
AcDbCircle
  8
0
 62
256
370
-1
  6
ByLayer
 10
94.9525886688737444
 20
95.7230001998759974
 30
0.0
 40
0.5
  0
CIRCLE
  5
B0
100
AcDbEntity
100
AcDbCircle
  8
0
 62
256
370
-1
  6
ByLayer
 10
92.4525886688737444
 20
95.7230001998759974
 30
0.0
 40
0.5
  0
CIRCLE
  5
B1
100
AcDbEntity
100
AcDbCircle
  8
0
 62
256
370
-1
  6
ByLayer
 10
89.9551017724416653
 20
95.8350680460676188
 30
0.0
 40
0.5
  0
CIRCLE
  5
B2
100
AcDbEntity
100
AcDbCircle
  8
0
 62
256
370
-1
  6
ByLayer
 10
91.8128194758990901
 20
94.1620812157964338
 30
0.0
 40
0.5
  0
CIRCLE
  5
B3
100
AcDbEntity
100
AcDbCircle
  8
0
 62
256
370
-1
  6
ByLayer
 10
93.747742830199698
 20
92.5383706382887112
 30
0.0
 40
0.5
  0
CIRCLE
  5
B4
100
AcDbEntity
100
AcDbCircle
  8
0
 62
256
370
-1
  6
ByLayer
 10
94.9978583103567473
 20
90.4016768967407813
 30
0.0
 40
0.5
  0
CIRCLE
  5
B5
100
AcDbEntity
100
AcDbCircle
  8
0
 62
256
370
-1
  6
ByLayer
 10
94.6198504733971077
 20
87.9056985712307721
 30
0.0
 40
0.5
  0
CIRCLE
  5
B6
100
AcDbEntity
100
AcDbCircle
  8
0
 62
256
370
-1
  6
ByLayer
 10
92.7692343139104452
 20
86.224859545551368
 30
0.0
 40
0.5
  0
CIRCLE
  5
B7
100
AcDbEntity
100
AcDbCircle
  8
0
 62
256
370
-1
  6
ByLayer
 10
90.2733927026289251
 20
86.0807254017975652
 30
0.0
 40
0.5
  0
CIRCLE
  5
B8
100
AcDbEntity
100
AcDbCircle
  8
0
 62
256
370
-1
  6
ByLayer
 10
88.1684529131577506
 20
87.429513184475411
 30
0.0
 40
0.5
  0
CIRCLE
  5
B9
100
AcDbEntity
100
AcDbCircle
  8
0
 62
256
370
-1
  6
ByLayer
 10
86.2533418053602929
 20
89.0364822086917513
 30
0.0
 40
0.5
  0
CIRCLE
  5
BA
100
AcDbEntity
100
AcDbCircle
  8
0
 62
256
370
-1
  6
ByLayer
 10
84.3382306975628495
 20
90.6434512329081201
 30
0.0
 40
0.5
  0
CIRCLE
  5
BB
100
AcDbEntity
100
AcDbCircle
  8
0
 62
256
370
-1
  6
ByLayer
 10
82.4231195897654061
 20
92.2504202571244605
 30
0.0
 40
0.5
  0
CIRCLE
  5
BC
100
AcDbEntity
100
AcDbCircle
  8
0
 62
256
370
-1
  6
ByLayer
 10
80.5080084819679627
 20
93.8573892813408008
 30
0.0
 40
0.5
  0
CIRCLE
  5
BD
100
AcDbEntity
100
AcDbCircle
  8
0
 62
256
370
-1
  6
ByLayer
 10
78.592897374170505
 20
95.4643583055571696
 30
0.0
 40
0.5
  0
CIRCLE
  5
BE
100
AcDbEntity
100
AcDbCircle
  8
0
 62
256
370
-1
  6
ByLayer
 10
76.7249124014567627
 20
97.1258733195475941
 30
0.0
 40
0.5
  0
CIRCLE
  5
BF
100
AcDbEntity
100
AcDbCircle
  8
0
 62
256
370
-1
  6
ByLayer
 10
75.8995698705501951
 20
99.4857058785815696
 30
0.0
 40
0.5
  0
CIRCLE
  5
C0
100
AcDbEntity
100
AcDbCircle
  8
0
 62
256
370
-1
  6
ByLayer
 10
76.7408844398074876
 20
101.8398914693005963
 30
0.0
 40
0.5
  0
CIRCLE
  5
C1
100
AcDbEntity
100
AcDbCircle
  8
0
 62
256
370
-1
  6
ByLayer
 10
78.6559955476050874
 20
103.4468604935180736
 30
0.0
 40
0.5
  0
CIRCLE
  5
C2
100
AcDbEntity
100
AcDbCircle
  8
0
 62
256
370
-1
  6
ByLayer
 10
80.5272173619461569
 20
105.1047292825162458
 30
0.0
 40
0.5
  0
CIRCLE
  5
C3
100
AcDbEntity
100
AcDbCircle
  8
0
 62
256
370
-1
  6
ByLayer
 10
82.4423284697436003
 20
106.7116983067325862
 30
0.0
 40
0.5
  0
CIRCLE
  5
C4
100
AcDbEntity
100
AcDbCircle
  8
0
 62
256
370
-1
  6
ByLayer
 10
84.3574395169631259
 20
108.3186674031428822
 30
0.0
 40
0.5
  0
CIRCLE
  5
C5
100
AcDbEntity
100
AcDbCircle
  8
0
 62
256
370
-1
  6
ByLayer
 10
86.2725506582492869
 20
109.9256363874489182
 30
0.0
 40
0.5
  0
CIRCLE
  5
C6
100
AcDbEntity
100
AcDbCircle
  8
0
 62
256
370
-1
  6
ByLayer
 10
88.1876617931359164
 20
111.5326053793816357
 30
0.0
 40
0.5
  0
CIRCLE
  5
C7
100
AcDbEntity
100
AcDbCircle
  8
0
 62
256
370
-1
  6
ByLayer
 10
90.2983303684760585
 20
112.8724106507071383
 30
0.0
 40
0.5
  0
CIRCLE
  5
C8
100
AcDbEntity
100
AcDbCircle
  8
0
 62
256
370
-1
  6
ByLayer
 10
92.7931153148578858
 20
112.7110165017838597
 30
0.0
 40
0.5
  0
CIRCLE
  5
C9
100
AcDbEntity
100
AcDbCircle
  8
0
 62
256
370
-1
  6
ByLayer
 10
94.632061031245982
 20
111.0174171831202443
 30
0.0
 40
0.5
  0
CIRCLE
  5
CA
100
AcDbEntity
100
AcDbCircle
  8
0
 62
256
370
-1
  6
ByLayer
 10
94.9978583103567615
 20
108.5443235030112135
 30
0.0
 40
0.5
  0
CIRCLE
  5
CB
100
AcDbEntity
100
AcDbCircle
  8
0
 62
256
370
-1
  6
ByLayer
 10
93.7812423338963725
 20
106.4364785332762722
 30
0.0
 40
0.5
  0
CIRCLE
  5
CC
100
AcDbEntity
100
AcDbCircle
  8
0
 62
256
370
-1
  6
ByLayer
 10
91.781165146985586
 20
104.8224162337880898
 30
0.0
 40
0.5
  0
CIRCLE
  5
CD
100
AcDbEntity
100
AcDbCircle
  8
0
 62
256
370
-1
  6
ByLayer
 10
89.9525886688737444
 20
103.2230001998759974
 30
0.0
 40
0.5
  0
CIRCLE
  5
CE
100
AcDbEntity
100
AcDbCircle
  8
0
 62
256
370
-1
  6
ByLayer
 10
98.7025886688737444
 20
103.3734829201194145
 30
0.0
 40
0.5
  0
CIRCLE
  5
CF
100
AcDbEntity
100
AcDbCircle
  8
0
 62
256
370
-1
  6
ByLayer
 10
96.2025886688737444
 20
103.2230001998759974
 30
0.0
 40
0.5
  0
CIRCLE
  5
D0
100
AcDbEntity
100
AcDbCircle
  8
0
 62
256
370
-1
  6
ByLayer
 10
93.7025886688737444
 20
103.2230001998759974
 30
0.0
 40
0.5
  0
CIRCLE
  5
D1
100
AcDbEntity
100
AcDbCircle
  8
0
 62
256
370
-1
  6
ByLayer
 10
91.2025886688737444
 20
103.2230001998759974
 30
0.0
 40
0.5
  0
CIRCLE
  5
D2
100
AcDbEntity
100
AcDbCircle
  8
0
 62
256
370
-1
  6
ByLayer
 10
98.7025886688737444
 20
105.7230001998759974
 30
0.0
 40
0.5
  0
CIRCLE
  5
D3
100
AcDbEntity
100
AcDbCircle
  8
0
 62
256
370
-1
  6
ByLayer
 10
98.7025886688737444
 20
108.3734829201194145
 30
0.0
 40
0.5
  0
CIRCLE
  5
D4
100
AcDbEntity
100
AcDbCircle
  8
0
 62
256
370
-1
  6
ByLayer
 10
98.7025886688737444
 20
110.8734829201194145
 30
0.0
 40
0.5
  0
CIRCLE
  5
D5
100
AcDbEntity
100
AcDbCircle
  8
0
 62
256
370
-1
  6
ByLayer
 10
98.7025885746312639
 20
113.3734829201194145
 30
0.0
 40
0.5
  0
CIRCLE
  5
D6
100
AcDbEntity
100
AcDbCircle
  8
0
 62
256
370
-1
  6
ByLayer
 10
98.7025886688737444
 20
115.8734829201194145
 30
0.0
 40
0.5
  0
CIRCLE
  5
D7
100
AcDbEntity
100
AcDbCircle
  8
0
 62
256
370
-1
  6
ByLayer
 10
98.7025886688737586
 20
118.3734829201194145
 30
0.0
 40
0.5
  0
CIRCLE
  5
D8
100
AcDbEntity
100
AcDbCircle
  8
0
 62
256
370
-1
  6
ByLayer
 10
98.7025886688737302
 20
120.8734829201194145
 30
0.0
 40
0.5
  0
CIRCLE
  5
D9
100
AcDbEntity
100
AcDbCircle
  8
0
 62
256
370
-1
  6
ByLayer
 10
98.7025886688737444
 20
123.3734829201194145
 30
0.0
 40
0.5
  0
CIRCLE
  5
DA
100
AcDbEntity
100
AcDbCircle
  8
0
 62
256
370
-1
  6
ByLayer
 10
98.968252722439388
 20
125.8593273663072694
 30
0.0
 40
0.5
  0
CIRCLE
  5
DB
100
AcDbEntity
100
AcDbCircle
  8
0
 62
256
370
-1
  6
ByLayer
 10
100.6139107908262815
 20
127.7412969521276693
 30
0.0
 40
0.5
  0
CIRCLE
  5
DC
100
AcDbEntity
100
AcDbCircle
  8
0
 62
256
370
-1
  6
ByLayer
 10
103.0670642677022784
 20
128.2230001998759974
 30
0.0
 40
0.5
  0
CIRCLE
  5
DD
100
AcDbEntity
100
AcDbCircle
  8
0
 62
256
370
-1
  6
ByLayer
 10
105.5670642677022926
 20
128.2230001998759974
 30
0.0
 40
0.5
  0
CIRCLE
  5
DE
100
AcDbEntity
100
AcDbCircle
  8
0
 62
256
370
-1
  6
ByLayer
 10
108.0670642677022784
 20
128.2230001998759974
 30
0.0
 40
0.5
  0
CIRCLE
  5
DF
100
AcDbEntity
100
AcDbCircle
  8
0
 62
256
370
-1
  6
ByLayer
 10
110.5670642677022641
 20
128.2230001998759974
 30
0.0
 40
0.5
  0
CIRCLE
  5
E0
100
AcDbEntity
100
AcDbCircle
  8
0
 62
256
370
-1
  6
ByLayer
 10
113.0670642677022641
 20
128.2230001998759974
 30
0.0
 40
0.5
  0
CIRCLE
  5
E1
100
AcDbEntity
100
AcDbCircle
  8
0
 62
256
370
-1
  6
ByLayer
 10
123.0670642677022641
 20
120.7230001998759974
 30
0.0
 40
0.5
  0
CIRCLE
  5
E2
100
AcDbEntity
100
AcDbCircle
  8
0
 62
256
370
-1
  6
ByLayer
 10
121.7381510303783188
 20
120.7230001998759974
 30
0.0
 40
0.5
  0
CIRCLE
  5
E3
100
AcDbEntity
100
AcDbCircle
  8
0
 62
256
370
-1
  6
ByLayer
 10
121.4625046596635656
 20
118.0745171670581897
 30
0.0
 40
0.5
  0
CIRCLE
  5
E4
100
AcDbEntity
100
AcDbCircle
  8
0
 62
256
370
-1
  6
ByLayer
 10
121.2933282187689628
 20
115.5802478688775352
 30
0.0
 40
0.5
  0
CIRCLE
  5
E5
100
AcDbEntity
100
AcDbCircle
  8
0
 62
256
370
-1
  6
ByLayer
 10
121.2111540071440885
 20
113.0815987540669028
 30
0.0
 40
0.5
  0
CIRCLE
  5
E6
100
AcDbEntity
100
AcDbCircle
  8
0
 62
256
370
-1
  6
ByLayer
 10
121.2160817983588998
 20
110.5816036106968738
 30
0.0
 40
0.5
  0
CIRCLE
  5
E7
100
AcDbEntity
100
AcDbCircle
  8
0
 62
256
370
-1
  6
ByLayer
 10
121.3081056092244836
 20
108.0832978611470878
 30
0.0
 40
0.5
  0
CIRCLE
  5
E8
100
AcDbEntity
100
AcDbCircle
  8
0
 62
256
370
-1
  6
ByLayer
 10
121.4871137070714013
 20
105.5897148765834288
 30
0.0
 40
0.5
  0
CIRCLE
  5
E9
100
AcDbEntity
100
AcDbCircle
  8
0
 62
256
370
-1
  6
ByLayer
 10
121.7528887454059969
 20
103.1038822939266879
 30
0.0
 40
0.5
  0
CIRCLE
  5
EA
100
AcDbEntity
100
AcDbCircle
  8
0
 62
256
370
-1
  6
ByLayer
 10
122.1051080278001706
 20
100.628818339781219
 30
0.0
 40
0.5
  0
CIRCLE
  5
EB
100
AcDbEntity
100
AcDbCircle
  8
0
 62
256
370
-1
  6
ByLayer
 10
122.5433438997075228
 20
98.1675281657924188
 30
0.0
 40
0.5
  0
CIRCLE
  5
EC
100
AcDbEntity
100
AcDbCircle
  8
0
 62
256
370
-1
  6
ByLayer
 10
123.0670642677022641
 20
95.7230001998760542
 30
0.0
 40
0.5
  0
CIRCLE
  5
ED
100
AcDbEntity
100
AcDbCircle
  8
0
 62
256
370
-1
  6
ByLayer
 10
123.0670642677022926
 20
74.6031155470771807
 30
0.0
 40
0.5
  0
CIRCLE
  5
EE
100
AcDbEntity
100
AcDbCircle
  8
0
 62
256
370
-1
  6
ByLayer
 10
121.9230705475462031
 20
76.8260141880960248
 30
0.0
 40
0.5
  0
CIRCLE
  5
EF
100
AcDbEntity
100
AcDbCircle
  8
0
 62
256
370
-1
  6
ByLayer
 10
120.7748003342295817
 20
79.2487241533935958
 30
0.0
 40
0.5
  0
CIRCLE
  5
F0
100
AcDbEntity
100
AcDbCircle
  8
0
 62
256
370
-1
  6
ByLayer
 10
119.7784848917170706
 20
81.5416165492577534
 30
0.0
 40
0.5
  0
CIRCLE
  5
F1
100
AcDbEntity
100
AcDbCircle
  8
0
 62
256
370
-1
  6
ByLayer
 10
118.8549905185501956
 20
83.8647950061846075
 30
0.0
 40
0.5
  0
CIRCLE
  5
F2
100
AcDbEntity
100
AcDbCircle
  8
0
 62
256
370
-1
  6
ByLayer
 10
118.0052362990300452
 20
86.2159474398663974
 30
0.0
 40
0.5
  0
CIRCLE
  5
F3
100
AcDbEntity
100
AcDbCircle
  8
0
 62
256
370
-1
  6
ByLayer
 10
117.2300679294414749
 20
88.5927339256048185
 30
0.0
 40
0.5
  0
CIRCLE
  5
F4
100
AcDbEntity
100
AcDbCircle
  8
0
 62
256
370
-1
  6
ByLayer
 10
116.5302568764038114
 20
90.9927890270653847
 30
0.0
 40
0.5
  0
CIRCLE
  5
F5
100
AcDbEntity
100
AcDbCircle
  8
0
 62
256
370
-1
  6
ByLayer
 10
115.9064996090817061
 20
93.4137241504140547
 30
0.0
 40
0.5
  0
CIRCLE
  5
F6
100
AcDbEntity
100
AcDbCircle
  8
0
 62
256
370
-1
  6
ByLayer
 10
115.359416906038021
 20
95.8531299215048023
 30
0.0
 40
0.5
  0
CIRCLE
  5
F7
100
AcDbEntity
100
AcDbCircle
  8
0
 62
256
370
-1
  6
ByLayer
 10
114.8895532374308459
 20
98.3085785837504034
 30
0.0
 40
0.5
  0
CIRCLE
  5
F8
100
AcDbEntity
100
AcDbCircle
  8
0
 62
256
370
-1
  6
ByLayer
 10
114.4973762231295353
 20
100.7776264142821674
 30
0.0
 40
0.5
  0
CIRCLE
  5
F9
100
AcDbEntity
100
AcDbCircle
  8
0
 62
256
370
-1
  6
ByLayer
 10
114.1832761673361887
 20
103.2578161560057026
 30
0.0
 40
0.5
  0
CIRCLE
  5
FA
100
AcDbEntity
100
AcDbCircle
  8
0
 62
256
370
-1
  6
ByLayer
 10
113.9475656701441437
 20
105.7466794631227174
 30
0.0
 40
0.5
  0
CIRCLE
  5
FB
100
AcDbEntity
100
AcDbCircle
  8
0
 62
256
370
-1
  6
ByLayer
 10
113.7904793164528598
 20
108.2417393576911593
 30
0.0
 40
0.5
  0
CIRCLE
  5
FC
100
AcDbEntity
100
AcDbCircle
  8
0
 62
256
370
-1
  6
ByLayer
 10
113.7121734424419657
 20
110.7405126947698761
 30
0.0
 40
0.5
  0
CIRCLE
  5
FD
100
AcDbEntity
100
AcDbCircle
  8
0
 62
256
370
-1
  6
ByLayer
 10
113.7127259800560921
 20
113.2405126337103241
 30
0.0
 40
0.5
  0
CIRCLE
  5
FE
100
AcDbEntity
100
AcDbCircle
  8
0
 62
256
370
-1
  6
ByLayer
 10
113.7921363793884808
 20
115.7392511131190247
 30
0.0
 40
0.5
  0
CIRCLE
  5
FF
100
AcDbEntity
100
AcDbCircle
  8
0
 62
256
370
-1
  6
ByLayer
 10
113.950325609260247
 20
118.2342413270383474
 30
0.0
 40
0.5
  0
CIRCLE
  5
100
100
AcDbEntity
100
AcDbCircle
  8
0
 62
256
370
-1
  6
ByLayer
 10
114.1871362358612316
 20
120.7230001998759406
 30
0.0
 40
0.5
  0
CIRCLE
  5
101
100
AcDbEntity
100
AcDbCircle
  8
0
 62
256
370
-1
  6
ByLayer
 10
111.6871362358612458
 20
120.7230001998760258
 30
0.0
 40
0.5
  0
CIRCLE
  5
102
100
AcDbEntity
100
AcDbCircle
  8
0
 62
256
370
-1
  6
ByLayer
 10
108.7025886688737586
 20
120.7230001998760258
 30
0.0
 40
0.5
  0
CIRCLE
  5
103
100
AcDbEntity
100
AcDbCircle
  8
0
 62
256
370
-1
  6
ByLayer
 10
106.2025886688737586
 20
120.7230001998759974
 30
0.0
 40
0.5
  0
CIRCLE
  5
104
100
AcDbEntity
100
AcDbCircle
  8
0
 62
256
370
-1
  6
ByLayer
 10
106.2025886688737586
 20
118.2230001998759974
 30
0.0
 40
0.5
  0
CIRCLE
  5
105
100
AcDbEntity
100
AcDbCircle
  8
0
 62
256
370
-1
  6
ByLayer
 10
106.2025886688737586
 20
116.1845676421056623
 30
0.0
 40
0.5
  0
CIRCLE
  5
106
100
AcDbEntity
100
AcDbCircle
  8
0
 62
256
370
-1
  6
ByLayer
 10
106.2025885746312355
 20
113.6845676421056623
 30
0.0
 40
0.5
  0
CIRCLE
  5
107
100
AcDbEntity
100
AcDbCircle
  8
0
 62
256
370
-1
  6
ByLayer
 10
106.2025886688737444
 20
111.1845676421056623
 30
0.0
 40
0.5
  0
CIRCLE
  5
108
100
AcDbEntity
100
AcDbCircle
  8
0
 62
256
370
-1
  6
ByLayer
 10
106.2025886688737444
 20
108.6845676421056623
 30
0.0
 40
0.5
  0
CIRCLE
  5
109
100
AcDbEntity
100
AcDbCircle
  8
0
 62
256
370
-1
  6
ByLayer
 10
106.2025887631162533
 20
106.1845676421056623
 30
0.0
 40
0.5
  0
CIRCLE
  5
10A
100
AcDbEntity
100
AcDbCircle
  8
0
 62
256
370
-1
  6
ByLayer
 10
106.2025886688737444
 20
103.6845676421056908
 30
0.0
 40
0.5
  0
LINE
  5
10B
100
AcDbEntity
100
AcDbLine
  8
noname
 62
256
370
-1
  6
ByLayer
 10
93.747742830199698
 20
93.7883706382887112
 30
0.0
 11
93.747742830199698
 21
91.2883706382887112
 31
0.0
  0
LINE
  5
10C
100
AcDbEntity
100
AcDbLine
  8
noname
 62
256
370
-1
  6
ByLayer
 10
94.9978583103567473
 20
91.6516768967407813
 30
0.0
 11
94.9978583103567615
 21
89.1516768967407813
 31
0.0
  0
LINE
  5
10D
100
AcDbEntity
100
AcDbLine
  8
noname
 62
256
370
-1
  6
ByLayer
 10
94.6198504733971077
 20
89.1556985712307721
 30
0.0
 11
94.6198504733971077
 21
86.6556985712307721
 31
0.0
  0
LINE
  5
10E
100
AcDbEntity
100
AcDbLine
  8
noname
 62
256
370
-1
  6
ByLayer
 10
92.7692343139104594
 20
87.474859545551368
 30
0.0
 11
92.7692343139104452
 21
84.974859545551368
 31
0.0
  0
LINE
  5
10F
100
AcDbEntity
100
AcDbLine
  8
noname
 62
256
370
-1
  6
ByLayer
 10
90.2733927026289251
 20
87.3307254017975652
 30
0.0
 11
90.2733927026289251
 21
84.8307254017975652
 31
0.0
  0
LINE
  5
110
100
AcDbEntity
100
AcDbLine
  8
noname
 62
256
370
-1
  6
ByLayer
 10
88.1684529131577506
 20
88.679513184475411
 30
0.0
 11
88.1684529131577506
 21
86.179513184475411
 31
0.0
  0
LINE
  5
111
100
AcDbEntity
100
AcDbLine
  8
noname
 62
256
370
-1
  6
ByLayer
 10
86.2533418053602929
 20
90.2864822086917513
 30
0.0
 11
86.2533418053603071
 21
87.7864822086917513
 31
0.0
  0
LINE
  5
112
100
AcDbEntity
100
AcDbLine
  8
noname
 62
256
370
-1
  6
ByLayer
 10
84.3382306975628495
 20
91.8934512329081201
 30
0.0
 11
84.3382306975628495
 21
89.3934512329081201
 31
0.0
  0
LINE
  5
113
100
AcDbEntity
100
AcDbLine
  8
noname
 62
256
370
-1
  6
ByLayer
 10
82.4231195897654061
 20
93.5004202571244605
 30
0.0
 11
82.4231195897654061
 21
91.0004202571244605
 31
0.0
  0
LINE
  5
114
100
AcDbEntity
100
AcDbLine
  8
noname
 62
256
370
-1
  6
ByLayer
 10
80.5080084819679627
 20
95.1073892813408008
 30
0.0
 11
80.5080084819679627
 21
92.6073892813408008
 31
0.0
  0
LINE
  5
115
100
AcDbEntity
100
AcDbLine
  8
noname
 62
256
370
-1
  6
ByLayer
 10
78.592897374170505
 20
96.7143583055571696
 30
0.0
 11
78.592897374170505
 21
94.2143583055571696
 31
0.0
  0
LINE
  5
116
100
AcDbEntity
100
AcDbLine
  8
noname
 62
256
370
-1
  6
ByLayer
 10
76.7249124014567627
 20
98.3758733195475656
 30
0.0
 11
76.7249124014567627
 21
95.8758733195475941
 31
0.0
  0
LINE
  5
117
100
AcDbEntity
100
AcDbLine
  8
noname
 62
256
370
-1
  6
ByLayer
 10
76.7408844398074876
 20
103.0898914693019606
 30
0.0
 11
76.7408844398074876
 21
100.589891469301989
 31
0.0
  0
LINE
  5
118
100
AcDbEntity
100
AcDbLine
  8
noname
 62
256
370
-1
  6
ByLayer
 10
90.2983303684760727
 20
114.1224106507071667
 30
0.0
 11
90.2983303684760727
 21
111.6224106507071667
 31
0.0
  0
LINE
  5
119
100
AcDbEntity
100
AcDbLine
  8
noname
 62
256
370
-1
  6
ByLayer
 10
75.8995698705501951
 20
100.7357058785816548
 30
0.0
 11
75.8995698705501951
 21
98.235705878581598
 31
0.0
  0
LINE
  5
11A
100
AcDbEntity
100
AcDbLine
  8
noname
 62
256
370
-1
  6
ByLayer
 10
78.6559955476050874
 20
104.6968604935180736
 30
0.0
 11
78.6559955476050874
 21
102.196860493517903
 31
0.0
  0
LINE
  5
11B
100
AcDbEntity
100
AcDbLine
  8
noname
 62
256
370
-1
  6
ByLayer
 10
80.5272173619461569
 20
106.3547292825162742
 30
0.0
 11
80.5272173619461569
 21
103.8547292825162458
 31
0.0
  0
LINE
  5
11C
100
AcDbEntity
100
AcDbLine
  8
noname
 62
256
370
-1
  6
ByLayer
 10
82.4423284697436003
 20
107.9616983067325862
 30
0.0
 11
82.4423284697436003
 21
105.4616983067325862
 31
0.0
  0
LINE
  5
11D
100
AcDbEntity
100
AcDbLine
  8
noname
 62
256
370
-1
  6
ByLayer
 10
84.3574395169631259
 20
109.5686674031428822
 30
0.0
 11
84.3574395169631259
 21
107.0686674031428822
 31
0.0
  0
LINE
  5
11E
100
AcDbEntity
100
AcDbLine
  8
noname
 62
256
370
-1
  6
ByLayer
 10
86.2725506582493011
 20
111.1756363874489466
 30
0.0
 11
86.2725506582492869
 21
108.6756363874489182
 31
0.0
  0
LINE
  5
11F
100
AcDbEntity
100
AcDbLine
  8
noname
 62
256
370
-1
  6
ByLayer
 10
88.1876617931359164
 20
112.7826053793816357
 30
0.0
 11
88.1876617931359164
 21
110.2826053793816357
 31
0.0
  0
LINE
  5
120
100
AcDbEntity
100
AcDbLine
  8
noname
 62
256
370
-1
  6
ByLayer
 10
92.7931153148578716
 20
113.9610165017838597
 30
0.0
 11
92.7931153148578858
 21
111.4610165017838597
 31
0.0
  0
LINE
  5
121
100
AcDbEntity
100
AcDbLine
  8
noname
 62
256
370
-1
  6
ByLayer
 10
94.6320610312459678
 20
112.2674171831202443
 30
0.0
 11
94.632061031245982
 21
109.7674171831202443
 31
0.0
  0
LINE
  5
122
100
AcDbEntity
100
AcDbLine
  8
noname
 62
256
370
-1
  6
ByLayer
 10
94.9978583103567473
 20
109.7943235030112135
 30
0.0
 11
94.9978583103567473
 21
107.2943235030112135
 31
0.0
  0
LINE
  5
123
100
AcDbEntity
100
AcDbLine
  8
noname
 62
256
370
-1
  6
ByLayer
 10
93.7812423338963725
 20
107.6864785332762722
 30
0.0
 11
93.7812423338963725
 21
105.1864785332762722
 31
0.0
  0
LINE
  5
124
100
AcDbEntity
100
AcDbLine
  8
noname
 62
256
370
-1
  6
ByLayer
 10
91.781165146985586
 20
106.0724162337880614
 30
0.0
 11
91.781165146985586
 21
103.5724162337880614
 31
0.0
  0
LINE
  5
125
100
AcDbEntity
100
AcDbLine
  8
noname
 62
256
370
-1
  6
ByLayer
 10
89.9525886688737444
 20
104.4730001998759974
 30
0.0
 11
89.9525886688737444
 21
101.9730001998758837
 31
0.0
  0
LINE
  5
126
100
AcDbEntity
100
AcDbLine
  8
noname
 62
256
370
-1
  6
ByLayer
 10
91.2025886688737444
 20
104.4730001998759974
 30
0.0
 11
91.2025886688737444
 21
101.9730001998761111
 31
0.0
  0
LINE
  5
127
100
AcDbEntity
100
AcDbLine
  8
noname
 62
256
370
-1
  6
ByLayer
 10
93.7025886688737444
 20
104.4730001998759974
 30
0.0
 11
93.7025886688737444
 21
101.9730001998761679
 31
0.0
  0
LINE
  5
128
100
AcDbEntity
100
AcDbLine
  8
noname
 62
256
370
-1
  6
ByLayer
 10
96.2025886688737444
 20
104.4730001998759974
 30
0.0
 11
96.2025886688737444
 21
101.9730001998760542
 31
0.0
  0
LINE
  5
129
100
AcDbEntity
100
AcDbLine
  8
noname
 62
256
370
-1
  6
ByLayer
 10
98.7025886688737444
 20
104.6234829201194145
 30
0.0
 11
98.7025886688737444
 21
102.1234829201194145
 31
0.0
  0
LINE
  5
12A
100
AcDbEntity
100
AcDbLine
  8
noname
 62
256
370
-1
  6
ByLayer
 10
98.7025886688737444
 20
106.9730001998759974
 30
0.0
 11
98.7025886688737444
 21
104.4730001998759974
 31
0.0
  0
LINE
  5
12B
100
AcDbEntity
100
AcDbLine
  8
noname
 62
256
370
-1
  6
ByLayer
 10
98.7025886688737444
 20
109.6234829201194145
 30
0.0
 11
98.7025886688737444
 21
107.1234829201194145
 31
0.0
  0
LINE
  5
12C
100
AcDbEntity
100
AcDbLine
  8
noname
 62
256
370
-1
  6
ByLayer
 10
98.7025886688737444
 20
112.1234829201194145
 30
0.0
 11
98.7025886688737444
 21
109.6234829201194145
 31
0.0
  0
LINE
  5
12D
100
AcDbEntity
100
AcDbLine
  8
noname
 62
256
370
-1
  6
ByLayer
 10
98.7025885746312497
 20
114.6234829201194145
 30
0.0
 11
98.7025885746312497
 21
112.1234829201194145
 31
0.0
  0
LINE
  5
12E
100
AcDbEntity
100
AcDbLine
  8
noname
 62
256
370
-1
  6
ByLayer
 10
98.7025886688737302
 20
117.1234829201194145
 30
0.0
 11
98.7025886688737444
 21
114.6234829201194145
 31
0.0
  0
LINE
  5
12F
100
AcDbEntity
100
AcDbLine
  8
noname
 62
256
370
-1
  6
ByLayer
 10
98.7025886688737586
 20
119.6234829201194145
 30
0.0
 11
98.7025886688737302
 21
117.1234829201194145
 31
0.0
  0
LINE
  5
130
100
AcDbEntity
100
AcDbLine
  8
noname
 62
256
370
-1
  6
ByLayer
 10
98.7025886688737586
 20
122.1234829201194145
 30
0.0
 11
98.7025886688737586
 21
119.6234829201194145
 31
0.0
  0
LINE
  5
131
100
AcDbEntity
100
AcDbLine
  8
noname
 62
256
370
-1
  6
ByLayer
 10
98.7025886688737302
 20
124.6234829201194145
 30
0.0
 11
98.7025886688737586
 21
122.1234829201194145
 31
0.0
  0
LINE
  5
132
100
AcDbEntity
100
AcDbLine
  8
noname
 62
256
370
-1
  6
ByLayer
 10
98.9682527224393738
 20
127.1093273663072694
 30
0.0
 11
98.9682527224393738
 21
124.6093273663072694
 31
0.0
  0
LINE
  5
133
100
AcDbEntity
100
AcDbLine
  8
noname
 62
256
370
-1
  6
ByLayer
 10
100.6139107908262957
 20
128.9912969521276693
 30
0.0
 11
100.6139107908262957
 21
126.4912969521276693
 31
0.0
  0
LINE
  5
134
100
AcDbEntity
100
AcDbLine
  8
noname
 62
256
370
-1
  6
ByLayer
 10
103.0670642677022784
 20
129.4730001998759974
 30
0.0
 11
103.0670642677022641
 21
126.9730001998759974
 31
0.0
  0
LINE
  5
135
100
AcDbEntity
100
AcDbLine
  8
noname
 62
256
370
-1
  6
ByLayer
 10
105.5670642677022926
 20
129.4730001998759974
 30
0.0
 11
105.5670642677022926
 21
126.9730001998759974
 31
0.0
  0
LINE
  5
136
100
AcDbEntity
100
AcDbLine
  8
noname
 62
256
370
-1
  6
ByLayer
 10
108.0670642677022784
 20
129.4730001998759974
 30
0.0
 11
108.0670642677022641
 21
126.9730001998759974
 31
0.0
  0
LINE
  5
137
100
AcDbEntity
100
AcDbLine
  8
noname
 62
256
370
-1
  6
ByLayer
 10
110.5670642677022641
 20
129.4730001998759974
 30
0.0
 11
110.5670642677022784
 21
126.9730001998759974
 31
0.0
  0
LINE
  5
138
100
AcDbEntity
100
AcDbLine
  8
noname
 62
256
370
-1
  6
ByLayer
 10
113.0670642677022641
 20
129.4730001998759974
 30
0.0
 11
113.0670642677022926
 21
126.9730001998759974
 31
0.0
  0
LINE
  5
139
100
AcDbEntity
100
AcDbLine
  8
noname
 62
256
370
-1
  6
ByLayer
 10
121.7381510303783472
 20
121.973000199875969
 30
0.0
 11
121.7381510303783188
 21
119.4730001998759974
 31
0.0
  0
LINE
  5
13A
100
AcDbEntity
100
AcDbLine
  8
noname
 62
256
370
-1
  6
ByLayer
 10
121.4625046596635656
 20
119.3245171670581897
 30
0.0
 11
121.4625046596635656
 21
116.8245171670581897
 31
0.0
  0
LINE
  5
13B
100
AcDbEntity
100
AcDbLine
  8
noname
 62
256
370
-1
  6
ByLayer
 10
121.293328218768977
 20
116.8302478688775352
 30
0.0
 11
121.2933282187689628
 21
114.3302478688775352
 31
0.0
  0
LINE
  5
13C
100
AcDbEntity
100
AcDbLine
  8
noname
 62
256
370
-1
  6
ByLayer
 10
121.2111540071440885
 20
114.3315987540669028
 30
0.0
 11
121.2111540071440885
 21
111.8315987540669028
 31
0.0
  0
LINE
  5
13D
100
AcDbEntity
100
AcDbLine
  8
noname
 62
256
370
-1
  6
ByLayer
 10
121.2160817983588856
 20
111.8316036106968738
 30
0.0
 11
121.2160817983588856
 21
109.3316036106968738
 31
0.0
  0
LINE
  5
13E
100
AcDbEntity
100
AcDbLine
  8
noname
 62
256
370
-1
  6
ByLayer
 10
121.3081056092244836
 20
109.3332978611470878
 30
0.0
 11
121.3081056092244836
 21
106.8332978611470594
 31
0.0
  0
LINE
  5
13F
100
AcDbEntity
100
AcDbLine
  8
noname
 62
256
370
-1
  6
ByLayer
 10
121.4871137070714013
 20
106.8397148765834572
 30
0.0
 11
121.4871137070714013
 21
104.3397148765834288
 31
0.0
  0
LINE
  5
140
100
AcDbEntity
100
AcDbLine
  8
noname
 62
256
370
-1
  6
ByLayer
 10
121.7528887454059969
 20
104.3538822939266595
 30
0.0
 11
121.7528887454059969
 21
101.8538822939256931
 31
0.0
  0
LINE
  5
141
100
AcDbEntity
100
AcDbLine
  8
noname
 62
256
370
-1
  6
ByLayer
 10
122.1051080278001706
 20
101.8788183397846581
 30
0.0
 11
122.1051080278001706
 21
99.3788183397811906
 31
0.0
  0
LINE
  5
142
100
AcDbEntity
100
AcDbLine
  8
noname
 62
256
370
-1
  6
ByLayer
 10
122.5433438997075228
 20
99.4175281657923904
 30
0.0
 11
122.5433438997075228
 21
96.9175281657924188
 31
0.0
  0
LINE
  5
143
100
AcDbEntity
100
AcDbLine
  8
noname
 62
256
370
-1
  6
ByLayer
 10
123.0670642677022641
 20
96.9730001998760542
 30
0.0
 11
123.0670642677022641
 21
94.4730001998760542
 31
0.0
  0
LINE
  5
144
100
AcDbEntity
100
AcDbLine
  8
noname
 62
256
370
-1
  6
ByLayer
 10
123.0670642677022641
 20
78.3531155470771807
 30
0.0
 11
123.0670642677022641
 21
75.8531155470771807
 31
0.0
  0
LINE
  5
145
100
AcDbEntity
100
AcDbLine
  8
noname
 62
256
370
-1
  6
ByLayer
 10
123.0670642677022641
 20
75.8531155470771523
 30
0.0
 11
123.0670642677022926
 21
73.3531155470771807
 31
0.0
  0
LINE
  5
146
100
AcDbEntity
100
AcDbLine
  8
noname
 62
256
370
-1
  6
ByLayer
 10
124.3170642677022926
 20
74.6031155470771807
 30
0.0
 11
121.8170642677022926
 21
74.6031155470771807
 31
0.0
  0
LINE
  5
147
100
AcDbEntity
100
AcDbLine
  8
noname
 62
256
370
-1
  6
ByLayer
 10
124.3170642677022641
 20
95.7230001998760542
 30
0.0
 11
121.8170642677022641
 21
95.7230001998760542
 31
0.0
  0
LINE
  5
148
100
AcDbEntity
100
AcDbLine
  8
noname
 62
256
370
-1
  6
ByLayer
 10
123.7933438997075228
 20
98.1675281657924188
 30
0.0
 11
121.2933438997075228
 21
98.1675281657924188
 31
0.0
  0
LINE
  5
149
100
AcDbEntity
100
AcDbLine
  8
noname
 62
256
370
-1
  6
ByLayer
 10
123.3551080278001706
 20
100.6288183397811906
 30
0.0
 11
120.8551080278001706
 21
100.628818339781219
 31
0.0
  0
LINE
  5
14A
100
AcDbEntity
100
AcDbLine
  8
noname
 62
256
370
-1
  6
ByLayer
 10
123.0028887454059969
 20
103.1038822939266595
 30
0.0
 11
120.5028887454059969
 21
103.1038822939266311
 31
0.0
  0
LINE
  5
14B
100
AcDbEntity
100
AcDbLine
  8
noname
 62
256
370
-1
  6
ByLayer
 10
122.7371137070714013
 20
105.5897148765834572
 30
0.0
 11
120.2371137070714013
 21
105.5897148765834572
 31
0.0
  0
LINE
  5
14C
100
AcDbEntity
100
AcDbLine
  8
noname
 62
256
370
-1
  6
ByLayer
 10
122.5581056092244836
 20
108.0832978611470878
 30
0.0
 11
120.0581056092244836
 21
108.0832978611470878
 31
0.0
  0
LINE
  5
14D
100
AcDbEntity
100
AcDbLine
  8
noname
 62
256
370
-1
  6
ByLayer
 10
122.4660817983588856
 20
110.5816036106968738
 30
0.0
 11
119.9660817983588998
 21
110.5816036106968454
 31
0.0
  0
LINE
  5
14E
100
AcDbEntity
100
AcDbLine
  8
noname
 62
256
370
-1
  6
ByLayer
 10
122.4611540071440885
 20
113.0815987540669028
 30
0.0
 11
119.9611540071440885
 21
113.0815987540669028
 31
0.0
  0
LINE
  5
14F
100
AcDbEntity
100
AcDbLine
  8
noname
 62
256
370
-1
  6
ByLayer
 10
122.5433282187689628
 20
115.5802478688775352
 30
0.0
 11
120.0433282187689628
 21
115.5802478688775352
 31
0.0
  0
LINE
  5
150
100
AcDbEntity
100
AcDbLine
  8
noname
 62
256
370
-1
  6
ByLayer
 10
122.7125046596635656
 20
118.0745171670581897
 30
0.0
 11
120.2125046596635656
 21
118.0745171670581897
 31
0.0
  0
LINE
  5
151
100
AcDbEntity
100
AcDbLine
  8
noname
 62
256
370
-1
  6
ByLayer
 10
122.9881510303783188
 20
120.7230001998759974
 30
0.0
 11
120.4881510303783188
 21
120.7230001998759974
 31
0.0
  0
LINE
  5
152
100
AcDbEntity
100
AcDbLine
  8
noname
 62
256
370
-1
  6
ByLayer
 10
124.3170642677022641
 20
120.7230001998759974
 30
0.0
 11
121.8170642677022641
 21
120.7230001998759974
 31
0.0
  0
LINE
  5
153
100
AcDbEntity
100
AcDbLine
  8
noname
 62
256
370
-1
  6
ByLayer
 10
116.8170642677022784
 20
128.2230001998759974
 30
0.0
 11
114.3170642677022784
 21
128.2230001998759974
 31
0.0
  0
LINE
  5
154
100
AcDbEntity
100
AcDbLine
  8
noname
 62
256
370
-1
  6
ByLayer
 10
114.3170642677022784
 20
128.2230001998759974
 30
0.0
 11
111.8170642677022641
 21
128.2230001998759974
 31
0.0
  0
LINE
  5
155
100
AcDbEntity
100
AcDbLine
  8
noname
 62
256
370
-1
  6
ByLayer
 10
111.8170642677022641
 20
128.2230001998759974
 30
0.0
 11
109.3170642677022784
 21
128.2230001998759974
 31
0.0
  0
LINE
  5
156
100
AcDbEntity
100
AcDbLine
  8
noname
 62
256
370
-1
  6
ByLayer
 10
109.3170642677022784
 20
128.2230001998759974
 30
0.0
 11
106.8170642677022641
 21
128.2230001998759974
 31
0.0
  0
LINE
  5
157
100
AcDbEntity
100
AcDbLine
  8
noname
 62
256
370
-1
  6
ByLayer
 10
106.8170642677022641
 20
128.2230001998759974
 30
0.0
 11
104.3170642677022641
 21
128.2230001998759974
 31
0.0
  0
LINE
  5
158
100
AcDbEntity
100
AcDbLine
  8
noname
 62
256
370
-1
  6
ByLayer
 10
104.3170642677022641
 20
128.2230001998759974
 30
0.0
 11
101.8170642677022641
 21
128.2230001998759974
 31
0.0
  0
LINE
  5
159
100
AcDbEntity
100
AcDbLine
  8
noname
 62
256
370
-1
  6
ByLayer
 10
101.8639107908262957
 20
127.7412969521276693
 30
0.0
 11
99.3639107908262815
 21
127.7412969521276693
 31
0.0
  0
LINE
  5
15A
100
AcDbEntity
100
AcDbLine
  8
noname
 62
256
370
-1
  6
ByLayer
 10
100.218252722439388
 20
125.8593273663072694
 30
0.0
 11
97.7182527224393738
 21
125.8593273663072694
 31
0.0
  0
LINE
  5
15B
100
AcDbEntity
100
AcDbLine
  8
noname
 62
256
370
-1
  6
ByLayer
 10
99.9525886688737302
 20
123.3734829201194145
 30
0.0
 11
97.4525886688737444
 21
123.3734829201194145
 31
0.0
  0
LINE
  5
15C
100
AcDbEntity
100
AcDbLine
  8
noname
 62
256
370
-1
  6
ByLayer
 10
99.9525886688737728
 20
120.8734829201194145
 30
0.0
 11
97.4525886688737728
 21
120.8734829201194145
 31
0.0
  0
LINE
  5
15D
100
AcDbEntity
100
AcDbLine
  8
noname
 62
256
370
-1
  6
ByLayer
 10
99.9525886688737586
 20
118.3734829201194145
 30
0.0
 11
97.4525886688737302
 21
118.3734829201194145
 31
0.0
  0
LINE
  5
15E
100
AcDbEntity
100
AcDbLine
  8
noname
 62
256
370
-1
  6
ByLayer
 10
99.9525886688737444
 20
115.8734829201194145
 30
0.0
 11
97.4525886688737444
 21
115.8734829201194145
 31
0.0
  0
LINE
  5
15F
100
AcDbEntity
100
AcDbLine
  8
noname
 62
256
370
-1
  6
ByLayer
 10
99.9525885746312497
 20
113.3734829201194145
 30
0.0
 11
97.4525885746312497
 21
113.3734829201194145
 31
0.0
  0
LINE
  5
160
100
AcDbEntity
100
AcDbLine
  8
noname
 62
256
370
-1
  6
ByLayer
 10
99.9525886688737444
 20
110.8734829201194145
 30
0.0
 11
97.4525886688737444
 21
110.8734829201194145
 31
0.0
  0
LINE
  5
161
100
AcDbEntity
100
AcDbLine
  8
noname
 62
256
370
-1
  6
ByLayer
 10
99.9525886688737444
 20
108.3734829201194145
 30
0.0
 11
97.4525886688737444
 21
108.3734829201194145
 31
0.0
  0
LINE
  5
162
100
AcDbEntity
100
AcDbLine
  8
noname
 62
256
370
-1
  6
ByLayer
 10
99.9525886688737444
 20
105.7230001998759974
 30
0.0
 11
97.4525886688737444
 21
105.7230001998759974
 31
0.0
  0
LINE
  5
163
100
AcDbEntity
100
AcDbLine
  8
noname
 62
256
370
-1
  6
ByLayer
 10
99.9525886688737444
 20
103.3734829201194145
 30
0.0
 11
97.4525886688737444
 21
103.3734829201194145
 31
0.0
  0
LINE
  5
164
100
AcDbEntity
100
AcDbLine
  8
noname
 62
256
370
-1
  6
ByLayer
 10
97.4525886688737444
 20
103.2230001998759974
 30
0.0
 11
94.9525886688737444
 21
103.2230001998759974
 31
0.0
  0
LINE
  5
165
100
AcDbEntity
100
AcDbLine
  8
noname
 62
256
370
-1
  6
ByLayer
 10
94.9525886688737444
 20
103.2230001998759974
 30
0.0
 11
92.4525886688737444
 21
103.2230001998759974
 31
0.0
  0
LINE
  5
166
100
AcDbEntity
100
AcDbLine
  8
noname
 62
256
370
-1
  6
ByLayer
 10
92.4525886688737444
 20
103.2230001998759974
 30
0.0
 11
89.9525886688737444
 21
103.2230001998759974
 31
0.0
  0
LINE
  5
167
100
AcDbEntity
100
AcDbLine
  8
noname
 62
256
370
-1
  6
ByLayer
 10
91.2025886688737444
 20
103.2230001998759974
 30
0.0
 11
88.7025886688737444
 21
103.2230001998759974
 31
0.0
  0
LINE
  5
168
100
AcDbEntity
100
AcDbLine
  8
noname
 62
256
370
-1
  6
ByLayer
 10
93.031165146985586
 20
104.8224162337880614
 30
0.0
 11
90.531165146985586
 21
104.8224162337880898
 31
0.0
  0
LINE
  5
169
100
AcDbEntity
100
AcDbLine
  8
noname
 62
256
370
-1
  6
ByLayer
 10
95.0312423338963725
 20
106.4364785332762722
 30
0.0
 11
92.5312423338963725
 21
106.4364785332762722
 31
0.0
  0
LINE
  5
16A
100
AcDbEntity
100
AcDbLine
  8
noname
 62
256
370
-1
  6
ByLayer
 10
96.2478583103567473
 20
108.5443235030112135
 30
0.0
 11
93.7478583103567473
 21
108.5443235030112135
 31
0.0
  0
LINE
  5
16B
100
AcDbEntity
100
AcDbLine
  8
noname
 62
256
370
-1
  6
ByLayer
 10
95.882061031245982
 20
111.0174171831202443
 30
0.0
 11
93.3820610312459678
 21
111.0174171831202443
 31
0.0
  0
LINE
  5
16C
100
AcDbEntity
100
AcDbLine
  8
noname
 62
256
370
-1
  6
ByLayer
 10
94.0431153148578858
 20
112.7110165017838597
 30
0.0
 11
91.5431153148578858
 21
112.7110165017838881
 31
0.0
  0
LINE
  5
16D
100
AcDbEntity
100
AcDbLine
  8
noname
 62
256
370
-1
  6
ByLayer
 10
91.5483303684760727
 20
112.8724106507071383
 30
0.0
 11
89.0483303684760585
 21
112.8724106507071383
 31
0.0
  0
LINE
  5
16E
100
AcDbEntity
100
AcDbLine
  8
noname
 62
256
370
-1
  6
ByLayer
 10
89.4376617931359306
 20
111.5326053793816357
 30
0.0
 11
86.9376617931359164
 21
111.5326053793816357
 31
0.0
  0
LINE
  5
16F
100
AcDbEntity
100
AcDbLine
  8
noname
 62
256
370
-1
  6
ByLayer
 10
87.5225506582492869
 20
109.9256363874489182
 30
0.0
 11
85.0225506582492869
 21
109.9256363874489182
 31
0.0
  0
LINE
  5
170
100
AcDbEntity
100
AcDbLine
  8
noname
 62
256
370
-1
  6
ByLayer
 10
85.6074395169631259
 20
108.3186674031428822
 30
0.0
 11
83.1074395169631259
 21
108.3186674031429106
 31
0.0
  0
LINE
  5
171
100
AcDbEntity
100
AcDbLine
  8
noname
 62
256
370
-1
  6
ByLayer
 10
83.6923284697436003
 20
106.7116983067325862
 30
0.0
 11
81.1923284697436003
 21
106.7116983067325577
 31
0.0
  0
LINE
  5
172
100
AcDbEntity
100
AcDbLine
  8
noname
 62
256
370
-1
  6
ByLayer
 10
81.7772173619461569
 20
105.1047292825162742
 30
0.0
 11
79.2772173619461569
 21
105.1047292825162458
 31
0.0
  0
LINE
  5
173
100
AcDbEntity
100
AcDbLine
  8
noname
 62
256
370
-1
  6
ByLayer
 10
79.9059955476050874
 20
103.4468604935181304
 30
0.0
 11
77.4059955476050874
 21
103.4468604935181304
 31
0.0
  0
LINE
  5
174
100
AcDbEntity
100
AcDbLine
  8
noname
 62
256
370
-1
  6
ByLayer
 10
77.9908844398074876
 20
101.8398914693020458
 30
0.0
 11
75.4908844398074876
 21
101.8398914693025006
 31
0.0
  0
LINE
  5
175
100
AcDbEntity
100
AcDbLine
  8
noname
 62
256
370
-1
  6
ByLayer
 10
77.1495698705501951
 20
99.4857058785815696
 30
0.0
 11
74.6495698705501951
 21
99.4857058785815696
 31
0.0
  0
LINE
  5
176
100
AcDbEntity
100
AcDbLine
  8
noname
 62
256
370
-1
  6
ByLayer
 10
77.9749124014567627
 20
97.1258733195476225
 30
0.0
 11
75.4749124014567627
 21
97.1258733195475941
 31
0.0
  0
LINE
  5
177
100
AcDbEntity
100
AcDbLine
  8
noname
 62
256
370
-1
  6
ByLayer
 10
79.842897374170505
 20
95.4643583055571696
 30
0.0
 11
77.342897374170505
 21
95.4643583055571696
 31
0.0
  0
LINE
  5
178
100
AcDbEntity
100
AcDbLine
  8
noname
 62
256
370
-1
  6
ByLayer
 10
81.7580084819679485
 20
93.8573892813408008
 30
0.0
 11
79.2580084819679627
 21
93.8573892813408008
 31
0.0
  0
LINE
  5
179
100
AcDbEntity
100
AcDbLine
  8
noname
 62
256
370
-1
  6
ByLayer
 10
83.6731195897654061
 20
92.2504202571244605
 30
0.0
 11
81.1731195897654061
 21
92.2504202571244605
 31
0.0
  0
LINE
  5
17A
100
AcDbEntity
100
AcDbLine
  8
noname
 62
256
370
-1
  6
ByLayer
 10
85.5882306975628495
 20
90.6434512329081201
 30
0.0
 11
83.0882306975628495
 21
90.6434512329081201
 31
0.0
  0
LINE
  5
17B
100
AcDbEntity
100
AcDbLine
  8
noname
 62
256
370
-1
  6
ByLayer
 10
87.5033418053603071
 20
89.0364822086917513
 30
0.0
 11
85.0033418053603071
 21
89.0364822086917513
 31
0.0
  0
LINE
  5
17C
100
AcDbEntity
100
AcDbLine
  8
noname
 62
256
370
-1
  6
ByLayer
 10
89.4184529131577506
 20
87.429513184475411
 30
0.0
 11
86.9184529131577506
 21
87.429513184475411
 31
0.0
  0
LINE
  5
17D
100
AcDbEntity
100
AcDbLine
  8
noname
 62
256
370
-1
  6
ByLayer
 10
91.5233927026289251
 20
86.0807254017975652
 30
0.0
 11
89.0233927026289251
 21
86.0807254017975652
 31
0.0
  0
LINE
  5
17E
100
AcDbEntity
100
AcDbLine
  8
noname
 62
256
370
-1
  6
ByLayer
 10
94.0192343139104452
 20
86.224859545551368
 30
0.0
 11
91.5192343139104452
 21
86.224859545551368
 31
0.0
  0
LINE
  5
17F
100
AcDbEntity
100
AcDbLine
  8
noname
 62
256
370
-1
  6
ByLayer
 10
95.8698504733971077
 20
87.9056985712307721
 30
0.0
 11
93.3698504733971077
 21
87.9056985712307721
 31
0.0
  0
LINE
  5
180
100
AcDbEntity
100
AcDbLine
  8
noname
 62
256
370
-1
  6
ByLayer
 10
94.997742830199698
 20
92.5383706382887112
 30
0.0
 11
92.497742830199698
 21
92.5383706382887112
 31
0.0
  0
LINE
  5
181
100
AcDbEntity
100
AcDbLine
  8
noname
 62
256
370
-1
  6
ByLayer
 10
96.2478583103567615
 20
90.4016768967407813
 30
0.0
 11
93.7478583103567473
 21
90.4016768967407813
 31
0.0
  0
LINE
  5
182
100
AcDbEntity
100
AcDbLine
  8
noname
 62
256
370
-1
  6
ByLayer
 10
93.0628194758990901
 20
94.1620812157964338
 30
0.0
 11
90.5628194758990901
 21
94.1620812157964338
 31
0.0
  0
LINE
  5
183
100
AcDbEntity
100
AcDbLine
  8
noname
 62
256
370
-1
  6
ByLayer
 10
91.2051017724416653
 20
95.8350680460676188
 30
0.0
 11
88.7051017724416653
 21
95.8350680460676188
 31
0.0
  0
LINE
  5
184
100
AcDbEntity
100
AcDbLine
  8
noname
 62
256
370
-1
  6
ByLayer
 10
93.7025886688737444
 20
95.7230001998759974
 30
0.0
 11
91.2025886688737444
 21
95.7230001998759974
 31
0.0
  0
LINE
  5
185
100
AcDbEntity
100
AcDbLine
  8
noname
 62
256
370
-1
  6
ByLayer
 10
96.2025886688737444
 20
95.7230001998759974
 30
0.0
 11
93.7025886688737444
 21
95.7230001998759974
 31
0.0
  0
LINE
  5
186
100
AcDbEntity
100
AcDbLine
  8
noname
 62
256
370
-1
  6
ByLayer
 10
98.7025886688737444
 20
95.7230001998759974
 30
0.0
 11
96.2025886688737444
 21
95.7230001998759974
 31
0.0
  0
LINE
  5
187
100
AcDbEntity
100
AcDbLine
  8
noname
 62
256
370
-1
  6
ByLayer
 10
101.2025886688737444
 20
95.7230001998759974
 30
0.0
 11
98.7025886688737444
 21
95.7230001998759974
 31
0.0
  0
LINE
  5
188
100
AcDbEntity
100
AcDbLine
  8
noname
 62
256
370
-1
  6
ByLayer
 10
103.7025886688737444
 20
95.7230001998759974
 30
0.0
 11
101.2025886688737444
 21
95.7230001998759974
 31
0.0
  0
LINE
  5
189
100
AcDbEntity
100
AcDbLine
  8
noname
 62
256
370
-1
  6
ByLayer
 10
106.0596112728289029
 20
96.5563335332093402
 30
0.0
 11
103.5596112728289029
 21
96.5563335332093402
 31
0.0
  0
LINE
  5
18A
100
AcDbEntity
100
AcDbLine
  8
noname
 62
256
370
-1
  6
ByLayer
 10
107.3690682750262084
 20
98.6859631628389877
 30
0.0
 11
104.8690682750262084
 21
98.6859631628389877
 31
0.0
  0
LINE
  5
18B
100
AcDbEntity
100
AcDbLine
  8
noname
 62
256
370
-1
  6
ByLayer
 10
107.4525886688737444
 20
101.1845676421056908
 30
0.0
 11
104.9525886688737444
 21
101.1845676421056908
 31
0.0
  0
LINE
  5
18C
100
AcDbEntity
100
AcDbLine
  8
noname
 62
256
370
-1
  6
ByLayer
 10
107.4525886688737444
 20
103.6845676421056908
 30
0.0
 11
104.9525886688737444
 21
103.6845676421056908
 31
0.0
  0
LINE
  5
18D
100
AcDbEntity
100
AcDbLine
  8
noname
 62
256
370
-1
  6
ByLayer
 10
107.4525887631162533
 20
106.1845676421056623
 30
0.0
 11
104.9525887631162533
 21
106.1845676421056623
 31
0.0
  0
LINE
  5
18E
100
AcDbEntity
100
AcDbLine
  8
noname
 62
256
370
-1
  6
ByLayer
 10
107.4525886688737586
 20
108.6845676421056623
 30
0.0
 11
104.9525886688737444
 21
108.6845676421056623
 31
0.0
  0
LINE
  5
18F
100
AcDbEntity
100
AcDbLine
  8
noname
 62
256
370
-1
  6
ByLayer
 10
99.9525885746312497
 20
113.3734829201194145
 30
0.0
 11
97.4525885746312497
 21
113.3734829201194145
 31
0.0
  0
LINE
  5
190
100
AcDbEntity
100
AcDbLine
  8
noname
 62
256
370
-1
  6
ByLayer
 10
107.4525886688737444
 20
111.1845676421056623
 30
0.0
 11
104.9525886688737444
 21
111.1845676421056623
 31
0.0
  0
LINE
  5
191
100
AcDbEntity
100
AcDbLine
  8
noname
 62
256
370
-1
  6
ByLayer
 10
107.4525885746312355
 20
113.6845676421056623
 30
0.0
 11
104.9525885746312355
 21
113.6845676421056623
 31
0.0
  0
LINE
  5
192
100
AcDbEntity
100
AcDbLine
  8
noname
 62
256
370
-1
  6
ByLayer
 10
107.4525886688737586
 20
116.1845676421056623
 30
0.0
 11
104.9525886688737586
 21
116.1845676421056623
 31
0.0
  0
LINE
  5
193
100
AcDbEntity
100
AcDbLine
  8
noname
 62
256
370
-1
  6
ByLayer
 10
107.4525886688737444
 20
118.2230001998759974
 30
0.0
 11
104.9525886688737586
 21
118.2230001998759974
 31
0.0
  0
LINE
  5
194
100
AcDbEntity
100
AcDbLine
  8
noname
 62
256
370
-1
  6
ByLayer
 10
107.4525886688737586
 20
120.7230001998759974
 30
0.0
 11
104.9525886688737444
 21
120.7230001998759974
 31
0.0
  0
LINE
  5
195
100
AcDbEntity
100
AcDbLine
  8
noname
 62
256
370
-1
  6
ByLayer
 10
109.9525886688737586
 20
120.7230001998760258
 30
0.0
 11
107.4525886688737444
 21
120.7230001998760258
 31
0.0
  0
LINE
  5
196
100
AcDbEntity
100
AcDbLine
  8
noname
 62
256
370
-1
  6
ByLayer
 10
112.9371362358612458
 20
120.7230001998760258
 30
0.0
 11
110.43713623586126
 21
120.7230001998760258
 31
0.0
  0
LINE
  5
197
100
AcDbEntity
100
AcDbLine
  8
noname
 62
256
370
-1
  6
ByLayer
 10
115.4371362358612174
 20
120.7230001998759406
 30
0.0
 11
112.9371362358612174
 21
120.7230001998759406
 31
0.0
  0
LINE
  5
198
100
AcDbEntity
100
AcDbLine
  8
noname
 62
256
370
-1
  6
ByLayer
 10
115.200325609260247
 20
118.2342413270383474
 30
0.0
 11
112.7003256092602612
 21
118.2342413270383474
 31
0.0
  0
LINE
  5
199
100
AcDbEntity
100
AcDbLine
  8
noname
 62
256
370
-1
  6
ByLayer
 10
115.0421363793884808
 20
115.7392511131190247
 30
0.0
 11
112.5421363793884808
 21
115.7392511131190247
 31
0.0
  0
LINE
  5
19A
100
AcDbEntity
100
AcDbLine
  8
noname
 62
256
370
-1
  6
ByLayer
 10
114.9627259800560921
 20
113.2405126337103241
 30
0.0
 11
112.4627259800561063
 21
113.2405126337103241
 31
0.0
  0
LINE
  5
19B
100
AcDbEntity
100
AcDbLine
  8
noname
 62
256
370
-1
  6
ByLayer
 10
114.9621734424419657
 20
110.7405126947698761
 30
0.0
 11
112.4621734424419657
 21
110.7405126947698761
 31
0.0
  0
LINE
  5
19C
100
AcDbEntity
100
AcDbLine
  8
noname
 62
256
370
-1
  6
ByLayer
 10
115.0404793164528741
 20
108.2417393576911593
 30
0.0
 11
112.5404793164528598
 21
108.2417393576911593
 31
0.0
  0
LINE
  5
19D
100
AcDbEntity
100
AcDbLine
  8
noname
 62
256
370
-1
  6
ByLayer
 10
115.1975656701441437
 20
105.7466794631227174
 30
0.0
 11
112.6975656701441437
 21
105.7466794631227174
 31
0.0
  0
LINE
  5
19E
100
AcDbEntity
100
AcDbLine
  8
noname
 62
256
370
-1
  6
ByLayer
 10
115.1975656701441437
 20
105.7466794631227174
 30
0.0
 11
112.6975656701441437
 21
105.7466794631227174
 31
0.0
  0
LINE
  5
19F
100
AcDbEntity
100
AcDbLine
  8
noname
 62
256
370
-1
  6
ByLayer
 10
115.7473762231295353
 20
100.7776264142821674
 30
0.0
 11
113.2473762231295353
 21
100.7776264142821674
 31
0.0
  0
LINE
  5
1A0
100
AcDbEntity
100
AcDbLine
  8
noname
 62
256
370
-1
  6
ByLayer
 10
115.1975656701441437
 20
105.7466794631227174
 30
0.0
 11
112.6975656701441437
 21
105.7466794631227174
 31
0.0
  0
LINE
  5
1A1
100
AcDbEntity
100
AcDbLine
  8
noname
 62
256
370
-1
  6
ByLayer
 10
115.4332761673361887
 20
103.2578161560057026
 30
0.0
 11
112.9332761673361887
 21
103.2578161560057026
 31
0.0
  0
LINE
  5
1A2
100
AcDbEntity
100
AcDbLine
  8
noname
 62
256
370
-1
  6
ByLayer
 10
116.1395532374308459
 20
98.3085785837504034
 30
0.0
 11
113.6395532374308459
 21
98.3085785837504034
 31
0.0
  0
LINE
  5
1A3
100
AcDbEntity
100
AcDbLine
  8
noname
 62
256
370
-1
  6
ByLayer
 10
116.609416906038021
 20
95.8531299215048023
 30
0.0
 11
114.109416906038021
 21
95.8531299215048023
 31
0.0
  0
LINE
  5
1A4
100
AcDbEntity
100
AcDbLine
  8
noname
 62
256
370
-1
  6
ByLayer
 10
117.1564996090817061
 20
93.4137241504140547
 30
0.0
 11
114.6564996090817061
 21
93.4137241504140547
 31
0.0
  0
LINE
  5
1A5
100
AcDbEntity
100
AcDbLine
  8
noname
 62
256
370
-1
  6
ByLayer
 10
117.7802568764038114
 20
90.9927890270653847
 30
0.0
 11
115.2802568764038114
 21
90.9927890270653847
 31
0.0
  0
LINE
  5
1A6
100
AcDbEntity
100
AcDbLine
  8
noname
 62
256
370
-1
  6
ByLayer
 10
118.4800679294414891
 20
88.5927339256048185
 30
0.0
 11
115.9800679294414749
 21
88.5927339256048185
 31
0.0
  0
LINE
  5
1A7
100
AcDbEntity
100
AcDbLine
  8
noname
 62
256
370
-1
  6
ByLayer
 10
119.2552362990300452
 20
86.2159474398663974
 30
0.0
 11
116.7552362990300452
 21
86.2159474398663974
 31
0.0
  0
LINE
  5
1A8
100
AcDbEntity
100
AcDbLine
  8
noname
 62
256
370
-1
  6
ByLayer
 10
120.1049905185501956
 20
83.8647950061846075
 30
0.0
 11
117.6049905185501956
 21
83.8647950061846075
 31
0.0
  0
LINE
  5
1A9
100
AcDbEntity
100
AcDbLine
  8
noname
 62
256
370
-1
  6
ByLayer
 10
121.0284848917170706
 20
81.5416165492577534
 30
0.0
 11
118.5284848917170848
 21
81.5416165492577534
 31
0.0
  0
LINE
  5
1AA
100
AcDbEntity
100
AcDbLine
  8
noname
 62
256
370
-1
  6
ByLayer
 10
122.0248003342295675
 20
79.2487241533935958
 30
0.0
 11
119.5248003342295675
 21
79.2487241533935958
 31
0.0
  0
LINE
  5
1AB
100
AcDbEntity
100
AcDbLine
  8
noname
 62
256
370
-1
  6
ByLayer
 10
123.1730705475462031
 20
76.8260141880960248
 30
0.0
 11
120.6730705475462031
 21
76.8260141880960248
 31
0.0
  0
LINE
  5
1AC
100
AcDbEntity
100
AcDbLine
  8
noname
 62
256
370
-1
  6
ByLayer
 10
120.7748003342295533
 20
80.4987241533935958
 30
0.0
 11
120.7748003342295533
 21
77.9987241533935958
 31
0.0
  0
LINE
  5
1AD
100
AcDbEntity
100
AcDbLine
  8
noname
 62
256
370
-1
  6
ByLayer
 10
119.7784848917170706
 20
82.7916165492577534
 30
0.0
 11
119.778484891717099
 21
80.2916165492577534
 31
0.0
  0
LINE
  5
1AE
100
AcDbEntity
100
AcDbLine
  8
noname
 62
256
370
-1
  6
ByLayer
 10
118.8549905185501956
 20
85.1147950061846075
 30
0.0
 11
118.8549905185501956
 21
82.6147950061846075
 31
0.0
  0
LINE
  5
1AF
100
AcDbEntity
100
AcDbLine
  8
noname
 62
256
370
-1
  6
ByLayer
 10
118.0052362990300452
 20
87.4659474398663974
 30
0.0
 11
118.0052362990300452
 21
84.9659474398663974
 31
0.0
  0
LINE
  5
1B0
100
AcDbEntity
100
AcDbLine
  8
noname
 62
256
370
-1
  6
ByLayer
 10
117.2300679294414749
 20
89.8427339256048185
 30
0.0
 11
117.2300679294414891
 21
87.3427339256048185
 31
0.0
  0
LINE
  5
1B1
100
AcDbEntity
100
AcDbLine
  8
noname
 62
256
370
-1
  6
ByLayer
 10
116.5302568764038114
 20
92.2427890270653847
 30
0.0
 11
116.5302568764038114
 21
89.7427890270653847
 31
0.0
  0
LINE
  5
1B2
100
AcDbEntity
100
AcDbLine
  8
noname
 62
256
370
-1
  6
ByLayer
 10
115.9064996090817061
 20
94.6637241504140547
 30
0.0
 11
115.9064996090817061
 21
92.1637241504140547
 31
0.0
  0
LINE
  5
1B3
100
AcDbEntity
100
AcDbLine
  8
noname
 62
256
370
-1
  6
ByLayer
 10
115.359416906038021
 20
97.1031299215048023
 30
0.0
 11
115.359416906038021
 21
94.6031299215048023
 31
0.0
  0
LINE
  5
1B4
100
AcDbEntity
100
AcDbLine
  8
noname
 62
256
370
-1
  6
ByLayer
 10
114.8895532374308459
 20
99.5585785837504034
 30
0.0
 11
114.8895532374308459
 21
97.0585785837504034
 31
0.0
  0
LINE
  5
1B5
100
AcDbEntity
100
AcDbLine
  8
noname
 62
256
370
-1
  6
ByLayer
 10
114.4973762231295353
 20
102.0276264142821105
 30
0.0
 11
114.4973762231295353
 21
99.5276264142821674
 31
0.0
  0
LINE
  5
1B6
100
AcDbEntity
100
AcDbLine
  8
noname
 62
256
370
-1
  6
ByLayer
 10
114.1832761673361887
 20
104.5078161560057026
 30
0.0
 11
114.1832761673361887
 21
102.007816156005731
 31
0.0
  0
LINE
  5
1B7
100
AcDbEntity
100
AcDbLine
  8
noname
 62
256
370
-1
  6
ByLayer
 10
113.9475656701441437
 20
106.9966794631227174
 30
0.0
 11
113.9475656701441437
 21
104.4966794631227174
 31
0.0
  0
LINE
  5
1B8
100
AcDbEntity
100
AcDbLine
  8
noname
 62
256
370
-1
  6
ByLayer
 10
113.7904793164528741
 20
109.4917393576911593
 30
0.0
 11
113.7904793164528598
 21
106.9917393576911593
 31
0.0
  0
LINE
  5
1B9
100
AcDbEntity
100
AcDbLine
  8
noname
 62
256
370
-1
  6
ByLayer
 10
113.7121734424419657
 20
111.9905126947698761
 30
0.0
 11
113.7121734424419657
 21
109.4905126947698761
 31
0.0
  0
LINE
  5
1BA
100
AcDbEntity
100
AcDbLine
  8
noname
 62
256
370
-1
  6
ByLayer
 10
113.7127259800561063
 20
114.4905126337103241
 30
0.0
 11
113.7127259800560921
 21
111.9905126337103241
 31
0.0
  0
LINE
  5
1BB
100
AcDbEntity
100
AcDbLine
  8
noname
 62
256
370
-1
  6
ByLayer
 10
113.7921363793884666
 20
116.9892511131190247
 30
0.0
 11
113.7921363793884808
 21
114.4892511131190247
 31
0.0
  0
LINE
  5
1BC
100
AcDbEntity
100
AcDbLine
  8
noname
 62
256
370
-1
  6
ByLayer
 10
113.950325609260247
 20
119.4842413270383474
 30
0.0
 11
113.950325609260247
 21
116.9842413270383474
 31
0.0
  0
LINE
  5
1BD
100
AcDbEntity
100
AcDbLine
  8
noname
 62
256
370
-1
  6
ByLayer
 10
114.1871362358612316
 20
121.9730001998759406
 30
0.0
 11
114.1871362358612316
 21
119.4730001998759406
 31
0.0
  0
LINE
  5
1BE
100
AcDbEntity
100
AcDbLine
  8
noname
 62
256
370
-1
  6
ByLayer
 10
111.6871362358612458
 20
121.9730001998760258
 30
0.0
 11
111.6871362358612458
 21
119.4730001998760258
 31
0.0
  0
LINE
  5
1BF
100
AcDbEntity
100
AcDbLine
  8
noname
 62
256
370
-1
  6
ByLayer
 10
108.7025886688737586
 20
121.9730001998760258
 30
0.0
 11
108.7025886688737444
 21
119.4730001998760258
 31
0.0
  0
LINE
  5
1C0
100
AcDbEntity
100
AcDbLine
  8
noname
 62
256
370
-1
  6
ByLayer
 10
106.2025886688737444
 20
121.9730001998759974
 30
0.0
 11
106.2025886688737586
 21
119.4730001998759974
 31
0.0
  0
LINE
  5
1C1
100
AcDbEntity
100
AcDbLine
  8
noname
 62
256
370
-1
  6
ByLayer
 10
106.2025886688737586
 20
119.4730001998759974
 30
0.0
 11
106.2025886688737586
 21
116.9730001998759974
 31
0.0
  0
LINE
  5
1C2
100
AcDbEntity
100
AcDbLine
  8
noname
 62
256
370
-1
  6
ByLayer
 10
106.2025885746312355
 20
114.9345676421056623
 30
0.0
 11
106.2025885746312355
 21
112.4345676421056623
 31
0.0
  0
LINE
  5
1C3
100
AcDbEntity
100
AcDbLine
  8
noname
 62
256
370
-1
  6
ByLayer
 10
106.2025886688737586
 20
112.4345676421056623
 30
0.0
 11
106.2025886688737444
 21
109.9345676421056623
 31
0.0
  0
LINE
  5
1C4
100
AcDbEntity
100
AcDbLine
  8
noname
 62
256
370
-1
  6
ByLayer
 10
106.2025887631162533
 20
107.4345676421056623
 30
0.0
 11
106.2025887631162533
 21
104.9345676421056623
 31
0.0
  0
LINE
  5
1C5
100
AcDbEntity
100
AcDbLine
  8
noname
 62
256
370
-1
  6
ByLayer
 10
106.2025886688737444
 20
104.9345676421056908
 30
0.0
 11
106.2025886688737444
 21
102.4345676421056908
 31
0.0
  0
LINE
  5
1C6
100
AcDbEntity
100
AcDbLine
  8
noname
 62
256
370
-1
  6
ByLayer
 10
106.2025886688737444
 20
102.4345676421056908
 30
0.0
 11
106.2025886688737444
 21
99.9345676421056908
 31
0.0
  0
LINE
  5
1C7
100
AcDbEntity
100
AcDbLine
  8
noname
 62
256
370
-1
  6
ByLayer
 10
106.1190682750262084
 20
99.9359631628389877
 30
0.0
 11
106.1190682750262084
 21
97.4359631628389877
 31
0.0
  0
LINE
  5
1C8
100
AcDbEntity
100
AcDbLine
  8
noname
 62
256
370
-1
  6
ByLayer
 10
104.8096112728289029
 20
97.8063335332093402
 30
0.0
 11
104.8096112728289029
 21
95.3063335332093402
 31
0.0
  0
LINE
  5
1C9
100
AcDbEntity
100
AcDbLine
  8
noname
 62
256
370
-1
  6
ByLayer
 10
102.4525886688737444
 20
96.9730001998759974
 30
0.0
 11
102.4525886688737444
 21
94.4730001998759974
 31
0.0
  0
LINE
  5
1CA
100
AcDbEntity
100
AcDbLine
  8
noname
 62
256
370
-1
  6
ByLayer
 10
99.9525886688737444
 20
96.9730001998759974
 30
0.0
 11
99.9525886688737444
 21
94.4730001998759974
 31
0.0
  0
LINE
  5
1CB
100
AcDbEntity
100
AcDbLine
  8
noname
 62
256
370
-1
  6
ByLayer
 10
97.4525886688737444
 20
96.9730001998759974
 30
0.0
 11
97.4525886688737444
 21
94.4730001998759974
 31
0.0
  0
LINE
  5
1CC
100
AcDbEntity
100
AcDbLine
  8
noname
 62
256
370
-1
  6
ByLayer
 10
94.9525886688737444
 20
96.9730001998759974
 30
0.0
 11
94.9525886688737444
 21
94.4730001998759974
 31
0.0
  0
LINE
  5
1CD
100
AcDbEntity
100
AcDbLine
  8
noname
 62
256
370
-1
  6
ByLayer
 10
92.4525886688737444
 20
96.9730001998759974
 30
0.0
 11
92.4525886688737444
 21
94.4730001998759974
 31
0.0
  0
LINE
  5
1CE
100
AcDbEntity
100
AcDbLine
  8
noname
 62
256
370
-1
  6
ByLayer
 10
89.9551017724416653
 20
97.0850680460676188
 30
0.0
 11
89.9551017724416653
 21
94.5850680460676188
 31
0.0
  0
LINE
  5
1CF
100
AcDbEntity
100
AcDbLine
  8
noname
 62
256
370
-1
  6
ByLayer
 10
91.8128194758990901
 20
95.4120812157964338
 30
0.0
 11
91.8128194758990901
 21
92.9120812157964338
 31
0.0
  0
LINE
  5
1D0
100
AcDbEntity
100
AcDbLine
  8
noname
 62
256
370
-1
  6
ByLayer
 10
121.9230705475461889
 20
78.0760141880960248
 30
0.0
 11
121.9230705475462031
 21
75.5760141880960248
 31
0.0
  0
LINE
  5
1D1
100
AcDbEntity
100
AcDbLine
  8
noname
 62
256
370
-1
  6
ByLayer
 10
106.2025886688737586
 20
117.4345676421056623
 30
0.0
 11
106.2025886688737586
 21
114.9345676421056623
 31
0.0
  0
LINE
  5
1D2
100
AcDbEntity
100
AcDbLine
  8
noname
 62
256
370
-1
  6
ByLayer
 10
106.2025886688737444
 20
109.9345676421056623
 30
0.0
 11
106.2025886688737444
 21
107.4345676421056623
 31
0.0
  0
CIRCLE
  5
1D3
100
AcDbEntity
100
AcDbCircle
  8
0
 62
256
370
-1
  6
ByLayer
 10
115.5670642677022641
 20
128.2230001998759974
 30
0.0
 40
0.5
  0
LINE
  5
1D4
100
AcDbEntity
100
AcDbLine
  8
noname
 62
256
370
-1
  6
ByLayer
 10
115.5670642677022641
 20
129.4730001998759974
 30
0.0
 11
115.5670642677022926
 21
126.9730001998759974
 31
0.0
  0
CIRCLE
  5
1D5
100
AcDbEntity
100
AcDbCircle
  8
0
 62
256
370
-1
  6
ByLayer
 10
118.0670642677022499
 20
128.2230001998759974
 30
0.0
 40
0.5
  0
LINE
  5
1D6
100
AcDbEntity
100
AcDbLine
  8
noname
 62
256
370
-1
  6
ByLayer
 10
118.0670642677022499
 20
129.4730001998759974
 30
0.0
 11
118.0670642677022784
 21
126.9730001998759974
 31
0.0
  0
LINE
  5
1D7
100
AcDbEntity
100
AcDbLine
  8
noname
 62
256
370
-1
  6
ByLayer
 10
119.3170642677022641
 20
128.2230001998759974
 30
0.0
 11
116.8170642677022499
 21
128.2230001998759974
 31
0.0
  0
CIRCLE
  5
1D8
100
AcDbEntity
100
AcDbCircle
  8
0
 62
256
370
-1
  6
ByLayer
 10
120.5670642677022499
 20
128.2230001998759974
 30
0.0
 40
0.5
  0
LINE
  5
1D9
100
AcDbEntity
100
AcDbLine
  8
noname
 62
256
370
-1
  6
ByLayer
 10
120.5670642677022499
 20
129.4730001998759974
 30
0.0
 11
120.5670642677022784
 21
126.9730001998759974
 31
0.0
  0
CIRCLE
  5
1DA
100
AcDbEntity
100
AcDbCircle
  8
0
 62
256
370
-1
  6
ByLayer
 10
123.0670642677022641
 20
128.2230001998759974
 30
0.0
 40
0.5
  0
CIRCLE
  5
1DB
100
AcDbEntity
100
AcDbCircle
  8
0
 62
256
370
-1
  6
ByLayer
 10
123.0670642677022641
 20
126.7230001998759974
 30
0.0
 40
0.5
  0
CIRCLE
  5
1DC
100
AcDbEntity
100
AcDbCircle
  8
0
 62
256
370
-1
  6
ByLayer
 10
123.0670642677022641
 20
124.7230001998759974
 30
0.0
 40
0.5
  0
CIRCLE
  5
1DD
100
AcDbEntity
100
AcDbCircle
  8
0
 62
256
370
-1
  6
ByLayer
 10
123.0670642677022641
 20
122.7230001998759974
 30
0.0
 40
0.5
  0
LINE
  5
1DE
100
AcDbEntity
100
AcDbLine
  8
noname
 62
256
370
-1
  6
ByLayer
 10
123.0670642677022641
 20
129.4730001998759974
 30
0.0
 11
123.0670642677022641
 21
119.4730001998759974
 31
0.0
  0
LINE
  5
1DF
100
AcDbEntity
100
AcDbLine
  8
noname
 62
256
370
-1
  6
ByLayer
 10
124.3170642677022641
 20
128.2230001998759974
 30
0.0
 11
119.3170642677022641
 21
128.2230001998759974
 31
0.0
  0
LINE
  5
1E0
100
AcDbEntity
100
AcDbLine
  8
0
 62
256
370
-1
  6
ByLayer
 10
121.8170642677022641
 20
126.7230001998759974
 30
0.0
 11
124.3170642677022641
 21
126.7230001998759974
 31
0.0
  0
LINE
  5
1E1
100
AcDbEntity
100
AcDbLine
  8
0
 62
256
370
-1
  6
ByLayer
 10
121.8170642677022641
 20
124.7230001998759974
 30
0.0
 11
124.3170642677022641
 21
124.7230001998759974
 31
0.0
  0
LINE
  5
1E2
100
AcDbEntity
100
AcDbLine
  8
0
 62
256
370
-1
  6
ByLayer
 10
121.8170642677022641
 20
122.7230001998759974
 30
0.0
 11
124.3170642677022641
 21
122.7230001998759974
 31
0.0
  0
MTEXT
  5
1E3
100
AcDbEntity
100
AcDbMText
  8
contour
 62
256
370
-1
  6
ByLayer
 10
78.0797756719708502
 20
143.3884758893953517
 30
0.0
 40
6.0
 41
100.0
 71
5
 72
2
  1
Bend\~the\~flaps\Paway\~from\~you
  7
normallatin1
 50
0.0
 73
0
 44
1.0
  0
ENDSEC
  0
SECTION
  2
OBJECTS
  0
DICTIONARY
  5
C
100
AcDbDictionary
280
0
281
1
  3
ACAD_GROUP
350
D
  3
ACAD_LAYOUT
350
1A
  3
ACAD_MLINESTYLE
350
17
  3
ACAD_PLOTSETTINGS
350
19
  3
ACAD_PLOTSTYLENAME
350
E
  3
AcDbVariableDictionary
350
1E4
  0
DICTIONARY
  5
D
100
AcDbDictionary
280
0
281
1
  0
ACDBDICTIONARYWDFLT
  5
E
100
AcDbDictionary
281
1
  3
Normal
350
F
100
AcDbDictionaryWithDefault
340
F
  0
ACDBPLACEHOLDER
  5
F
  0
DICTIONARY
  5
17
100
AcDbDictionary
280
0
281
1
  3
Standard
350
18
  0
MLINESTYLE
  5
18
100
AcDbMlineStyle
  2
STANDARD
 70
0
  3

 62
256
 51
90.0
 52
90.0
 71
2
 49
0.5
 62
256
  6
BYLAYER
 49
-0.5
 62
256
  6
BYLAYER
  0
DICTIONARY
  5
19
100
AcDbDictionary
280
0
281
1
  0
DICTIONARY
  5
1A
100
AcDbDictionary
281
1
  3
Layout1
350
1E
  3
Layout2
350
26
  3
Model
350
22
  0
LAYOUT
  5
1E
100
AcDbPlotSettings
  1

  2
C:\Program Files\AutoCAD 2002\plotters\DWF ePlot (optimized for plotting).pc3
  4

  6

 40
0.0
 41
0.0
 42
0.0
 43
0.0
 44
0.0
 45
0.0
 46
0.0
 47
0.0
 48
0.0
 49
0.0
140
0.0
141
0.0
142
1.0
143
1.0
 70
688
 72
0
 73
0
 74
5
  7

 75
16
147
1.0
148
0.0
149
0.0
100
AcDbLayout
  1
Layout1
 70
1
 71
1
 10
0.0
 20
0.0
 11
420.0
 21
297.0
 12
0.0
 22
0.0
 32
0.0
 14
100000000000000000000.0
 24
100000000000000000000.0
 34
100000000000000000000.0
 15
-100000000000000000000.0
 25
-100000000000000000000.0
 35
-100000000000000000000.0
146
0.0
 13
0.0
 23
0.0
 33
0.0
 16
1.0
 26
0.0
 36
0.0
 17
0.0
 27
1.0
 37
0.0
 76
0
330
1B
  0
LAYOUT
  5
22
100
AcDbPlotSettings
  1

  2
C:\Program Files\AutoCAD 2002\plotters\DWF ePlot (optimized for plotting).pc3
  4

  6

 40
0.0
 41
0.0
 42
0.0
 43
0.0
 44
0.0
 45
0.0
 46
0.0
 47
0.0
 48
0.0
 49
0.0
140
0.0
141
0.0
142
1.0
143
1.0
 70
1712
 72
0
 73
0
 74
0
  7

 75
0
147
1.0
148
0.0
149
0.0
100
AcDbLayout
  1
Model
 70
1
 71
0
 10
0.0
 20
0.0
 11
12.0
 21
9.0
 12
0.0
 22
0.0
 32
0.0
 14
0.0
 24
0.0
 34
0.0
 15
0.0
 25
0.0
 35
0.0
146
0.0
 13
0.0
 23
0.0
 33
0.0
 16
1.0
 26
0.0
 36
0.0
 17
0.0
 27
1.0
 37
0.0
 76
0
330
1F
  0
LAYOUT
  5
26
100
AcDbPlotSettings
  1

  2
C:\Program Files\AutoCAD 2002\plotters\DWF ePlot (optimized for plotting).pc3
  4

  6

 40
0.0
 41
0.0
 42
0.0
 43
0.0
 44
0.0
 45
0.0
 46
0.0
 47
0.0
 48
0.0
 49
0.0
140
0.0
141
0.0
142
1.0
143
1.0
 70
688
 72
0
 73
0
 74
5
  7

 75
16
147
1.0
148
0.0
149
0.0
100
AcDbLayout
  1
Layout2
 70
1
 71
2
 10
0.0
 20
0.0
 11
12.0
 21
9.0
 12
0.0
 22
0.0
 32
0.0
 14
0.0
 24
0.0
 34
0.0
 15
0.0
 25
0.0
 35
0.0
146
0.0
 13
0.0
 23
0.0
 33
0.0
 16
1.0
 26
0.0
 36
0.0
 17
0.0
 27
1.0
 37
0.0
 76
0
330
23
  0
DICTIONARY
  5
1E4
100
AcDbDictionary
281
1
  3
DIMASSOC
350
1E6
  3
HIDETEXT
350
1E5
  0
DICTIONARYVAR
  5
1E5
100
DictionaryVariables
280
0
  1
2
  0
DICTIONARYVAR
  5
1E6
100
DictionaryVariables
280
0
  1
1
  0
ENDSEC
  0
EOF
