999
dxflib 2.0.4.8
  0
SECTION
  2
HEADER
  9
$ACADVER
  1
AC1015
  9
$HANDSEED
  5
FFFF
  9
$DIMASZ
 40
2.5
  9
$DIMGAP
 40
0.625
  9
$INSUNITS
 70
4
  9
$DIMEXO
 40
0.625
  9
$DIMTXT
 40
2.5
  9
$DIMSTYLE
  2
Standard
  9
$PLIMMIN
 10
0.0
 20
0.0
  9
$PLIMMAX
 10
210.0
 20
297.0
  9
$DIMEXE
 40
1.25
  9
$PINSBASE
 10
26.0895960344612234
 20
96.8964613895116003
 30
0.0
  0
ENDSEC
  0
SECTION
  2
TABLES
  0
TABLE
  2
VPORT
  5
8
100
AcDbSymbolTable
 70
1
  0
VPORT
  5
30
100
AcDbSymbolTableRecord
100
AcDbViewportTableRecord
  2
*Active
 70
0
 10
0.0
 20
0.0
 11
1.0
 21
1.0
 12
286.3055555555554861
 22
148.5
 13
0.0
 23
0.0
 14
10.0
 24
10.0
 15
10.0
 25
10.0
 16
0.0
 26
0.0
 36
1.0
 17
0.0
 27
0.0
 37
0.0
 40
297.0
 41
1.92798353909465
 42
50.0
 43
0.0
 44
0.0
 50
0.0
 51
0.0
 71
0
 72
100
 73
1
 74
3
 75
1
 76
1
 77
0
 78
0
281
0
 65
1
110
0.0
120
0.0
130
0.0
111
1.0
121
0.0
131
0.0
112
0.0
122
1.0
132
0.0
 79
0
146
0.0
  0
ENDTAB
  0
TABLE
  2
LTYPE
  5
5
100
AcDbSymbolTable
 70
21
  0
LTYPE
  5
14
100
AcDbSymbolTableRecord
100
AcDbLinetypeTableRecord
  2
ByBlock
 70
0
  3

 72
65
 73
0
 40
0.0
  0
LTYPE
  5
15
100
AcDbSymbolTableRecord
100
AcDbLinetypeTableRecord
  2
ByLayer
 70
0
  3

 72
65
 73
0
 40
0.0
  0
LTYPE
  5
16
100
AcDbSymbolTableRecord
100
AcDbLinetypeTableRecord
  2
CONTINUOUS
 70
0
  3
Solid line
 72
65
 73
0
 40
0.0
  0
LTYPE
  5
31
100
AcDbSymbolTableRecord
100
AcDbLinetypeTableRecord
  2
DOT
 70
0
  3
Dot . . . . . . . . . . . . . . . . . . . . . .
 72
65
 73
2
 40
6.3499999999999996
 49
0.0
 74
0
 49
-6.3499999999999996
 74
0
  0
LTYPE
  5
32
100
AcDbSymbolTableRecord
100
AcDbLinetypeTableRecord
  2
DOT2
 70
0
  3
Dot (.5x) .....................................
 72
65
 73
2
 40
3.1749999999999998
 49
0.0
 74
0
 49
-3.1749999999999998
 74
0
  0
LTYPE
  5
33
100
AcDbSymbolTableRecord
100
AcDbLinetypeTableRecord
  2
DOTX2
 70
0
  3
Dot (2x) .  .  .  .  .  .  .  .  .  .  .  .  .
 72
65
 73
2
 40
12.6999999999999993
 49
0.0
 74
0
 49
-12.6999999999999993
 74
0
  0
LTYPE
  5
34
100
AcDbSymbolTableRecord
100
AcDbLinetypeTableRecord
  2
DASHED
 70
0
  3
Dashed __ __ __ __ __ __ __ __ __ __ __ __ __ _
 72
65
 73
2
 40
19.0500000000000007
 49
12.6999999999999993
 74
0
 49
-6.3499999999999996
 74
0
  0
LTYPE
  5
35
100
AcDbSymbolTableRecord
100
AcDbLinetypeTableRecord
  2
DASHED2
 70
0
  3
Dashed (.5x) _ _ _ _ _ _ _ _ _ _ _ _ _ _ _ _ _
 72
65
 73
2
 40
9.5250000000000004
 49
6.3499999999999996
 74
0
 49
-3.1749999999999998
 74
0
  0
LTYPE
  5
36
100
AcDbSymbolTableRecord
100
AcDbLinetypeTableRecord
  2
DASHEDX2
 70
0
  3
Dashed (2x) ____  ____  ____  ____  ____  ___
 72
65
 73
2
 40
38.1000000000000014
 49
25.3999999999999986
 74
0
 49
-12.6999999999999993
 74
0
  0
LTYPE
  5
37
100
AcDbSymbolTableRecord
100
AcDbLinetypeTableRecord
  2
DASHDOT
 70
0
  3
Dash dot __ . __ . __ . __ . __ . __ . __ . __
 72
65
 73
4
 40
25.3999999999999986
 49
12.6999999999999993
 74
0
 49
-6.3499999999999996
 74
0
 49
0.0
 74
0
 49
-6.3499999999999996
 74
0
  0
LTYPE
  5
38
100
AcDbSymbolTableRecord
100
AcDbLinetypeTableRecord
  2
DASHDOT2
 70
0
  3
Dash dot (.5x) _._._._._._._._._._._._._._._.
 72
65
 73
4
 40
12.6999999999999993
 49
6.3499999999999996
 74
0
 49
-3.1749999999999998
 74
0
 49
0.0
 74
0
 49
-3.1749999999999998
 74
0
  0
LTYPE
  5
39
100
AcDbSymbolTableRecord
100
AcDbLinetypeTableRecord
  2
DASHDOTX2
 70
0
  3
Dash dot (2x) ____  .  ____  .  ____  .  ___
 72
65
 73
4
 40
50.7999999999999972
 49
25.3999999999999986
 74
0
 49
-12.6999999999999993
 74
0
 49
0.0
 74
0
 49
-12.6999999999999993
 74
0
  0
LTYPE
  5
3A
100
AcDbSymbolTableRecord
100
AcDbLinetypeTableRecord
  2
DIVIDE
 70
0
  3
Divide ____ . . ____ . . ____ . . ____ . . ____
 72
65
 73
6
 40
31.75
 49
12.6999999999999993
 74
0
 49
-6.3499999999999996
 74
0
 49
0.0
 74
0
 49
-6.3499999999999996
 74
0
 49
0.0
 74
0
 49
-6.3499999999999996
 74
0
  0
LTYPE
  5
3B
100
AcDbSymbolTableRecord
100
AcDbLinetypeTableRecord
  2
DIVIDE2
 70
0
  3
Divide (.5x) __..__..__..__..__..__..__..__.._
 72
65
 73
6
 40
15.875
 49
6.3499999999999996
 74
0
 49
-3.1749999999999998
 74
0
 49
0.0
 74
0
 49
-3.1749999999999998
 74
0
 49
0.0
 74
0
 49
-3.1749999999999998
 74
0
  0
LTYPE
  5
3C
100
AcDbSymbolTableRecord
100
AcDbLinetypeTableRecord
  2
DIVIDEX2
 70
0
  3
Divide (2x) ________  .  .  ________  .  .  _
 72
65
 73
6
 40
63.5
 49
25.3999999999999986
 74
0
 49
-12.6999999999999993
 74
0
 49
0.0
 74
0
 49
-12.6999999999999993
 74
0
 49
0.0
 74
0
 49
-12.6999999999999993
 74
0
  0
LTYPE
  5
3D
100
AcDbSymbolTableRecord
100
AcDbLinetypeTableRecord
  2
CENTER
 70
0
  3
Center ____ _ ____ _ ____ _ ____ _ ____ _ ____
 72
65
 73
4
 40
50.7999999999999972
 49
31.75
 74
0
 49
-6.3499999999999996
 74
0
 49
6.3499999999999996
 74
0
 49
-6.3499999999999996
 74
0
  0
LTYPE
  5
3E
100
AcDbSymbolTableRecord
100
AcDbLinetypeTableRecord
  2
CENTER2
 70
0
  3
Center (.5x) ___ _ ___ _ ___ _ ___ _ ___ _ ___
 72
65
 73
4
 40
28.5749999999999993
 49
19.0500000000000007
 74
0
 49
-3.1749999999999998
 74
0
 49
3.1749999999999998
 74
0
 49
-3.1749999999999998
 74
0
  0
LTYPE
  5
3F
100
AcDbSymbolTableRecord
100
AcDbLinetypeTableRecord
  2
CENTERX2
 70
0
  3
Center (2x) ________  __  ________  __  _____
 72
65
 73
4
 40
101.5999999999999943
 49
63.5
 74
0
 49
-12.6999999999999993
 74
0
 49
12.6999999999999993
 74
0
 49
-12.6999999999999993
 74
0
  0
LTYPE
  5
40
100
AcDbSymbolTableRecord
100
AcDbLinetypeTableRecord
  2
BORDER
 70
0
  3
Border __ __ . __ __ . __ __ . __ __ . __ __ .
 72
65
 73
6
 40
44.4500000000000028
 49
12.6999999999999993
 74
0
 49
-6.3499999999999996
 74
0
 49
12.6999999999999993
 74
0
 49
-6.3499999999999996
 74
0
 49
0.0
 74
0
 49
-6.3499999999999996
 74
0
  0
LTYPE
  5
41
100
AcDbSymbolTableRecord
100
AcDbLinetypeTableRecord
  2
BORDER2
 70
0
  3
Border (.5x) __.__.__.__.__.__.__.__.__.__.__.
 72
65
 73
6
 40
22.2250000000000014
 49
6.3499999999999996
 74
0
 49
-3.1749999999999998
 74
0
 49
6.3499999999999996
 74
0
 49
-3.1749999999999998
 74
0
 49
0.0
 74
0
 49
-3.1749999999999998
 74
0
  0
LTYPE
  5
42
100
AcDbSymbolTableRecord
100
AcDbLinetypeTableRecord
  2
BORDERX2
 70
0
  3
Border (2x) ____  ____  .  ____  ____  .  ___
 72
65
 73
6
 40
88.9000000000000057
 49
25.3999999999999986
 74
0
 49
-12.6999999999999993
 74
0
 49
25.3999999999999986
 74
0
 49
-12.6999999999999993
 74
0
 49
0.0
 74
0
 49
-12.6999999999999993
 74
0
  0
ENDTAB
  0
TABLE
  2
LAYER
  5
2
100
AcDbSymbolTable
 70
5
  0
LAYER
  5
10
100
AcDbSymbolTableRecord
100
AcDbLayerTableRecord
  2
0
 70
0
 62
7
  6
CONTINUOUS
370
0
390
F
  0
LAYER
  5
43
100
AcDbSymbolTableRecord
100
AcDbLayerTableRecord
  2
contour
 70
0
 62
7
  6
CONTINUOUS
370
25
390
F
  0
LAYER
  5
44
100
AcDbSymbolTableRecord
100
AcDbLayerTableRecord
  2
bend
 70
0
 62
7
  6
DASHED2
370
15
390
F
  0
LAYER
  5
45
100
AcDbSymbolTableRecord
100
AcDbLayerTableRecord
  2
cons
 70
1
 62
7
  6
CONTINUOUS
370
0
390
F
  0
LAYER
  5
46
100
AcDbSymbolTableRecord
100
AcDbLayerTableRecord
  2
helper
 70
0
 62
7
  6
CONTINUOUS
370
13
390
F
  0
ENDTAB
  0
TABLE
  2
STYLE
  5
3
100
AcDbSymbolTable
 70
1
  0
STYLE
  5
11
100
AcDbSymbolTableRecord
100
AcDbTextStyleTableRecord
  2
Standard
 70
0
 40
0.0
 41
0.75
 50
0.0
 71
0
 42
2.5
  3
txt
  4

  0
ENDTAB
  0
TABLE
  2
VIEW
  5
6
100
AcDbSymbolTable
 70
0
  0
ENDTAB
  0
TABLE
  2
UCS
  5
7
100
AcDbSymbolTable
 70
0
  0
ENDTAB
  0
TABLE
  2
APPID
  5
9
100
AcDbSymbolTable
 70
1
  0
APPID
  5
12
100
AcDbSymbolTableRecord
100
AcDbRegAppTableRecord
  2
ACAD
 70
0
  0
ENDTAB
  0
TABLE
  2
DIMSTYLE
  5
A
100
AcDbSymbolTable
 70
1
100
AcDbDimStyleTable
 71
0
  0
DIMSTYLE
105
27
100
AcDbSymbolTableRecord
100
AcDbDimStyleTableRecord
  2
Standard
 41
2.5
 42
0.625
 43
3.75
 44
1.25
 70
0
 73
0
 74
0
 77
1
 78
8
140
2.5
141
2.5
143
0.03937007874016
147
0.625
171
3
172
1
271
2
272
2
274
3
278
44
283
0
284
8
340
11
  0
ENDTAB
  0
TABLE
  2
BLOCK_RECORD
  5
1
100
AcDbSymbolTable
 70
1
  0
BLOCK_RECORD
  5
1F
100
AcDbSymbolTableRecord
100
AcDbBlockTableRecord
  2
*Model_Space
340
22
  0
BLOCK_RECORD
  5
1B
100
AcDbSymbolTableRecord
100
AcDbBlockTableRecord
  2
*Paper_Space
340
1E
  0
BLOCK_RECORD
  5
23
100
AcDbSymbolTableRecord
100
AcDbBlockTableRecord
  2
*Paper_Space0
340
26
  0
ENDTAB
  0
ENDSEC
  0
SECTION
  2
BLOCKS
  0
BLOCK
  5
20
100
AcDbEntity
  8
0
100
AcDbBlockBegin
  2
*Model_Space
 70
0
 10
0.0
 20
0.0
 30
0.0
  3
*Model_Space
  1

  0
ENDBLK
  5
21
100
AcDbEntity
  8
0
100
AcDbBlockEnd
  0
BLOCK
  5
1C
100
AcDbEntity
 67
1
  8
0
100
AcDbBlockBegin
  2
*Paper_Space
 70
0
 10
0.0
 20
0.0
 30
0.0
  3
*Paper_Space
  1

  0
ENDBLK
  5
1D
100
AcDbEntity
 67
1
  8
0
100
AcDbBlockEnd
  0
BLOCK
  5
24
100
AcDbEntity
  8
0
100
AcDbBlockBegin
  2
*Paper_Space0
 70
0
 10
0.0
 20
0.0
 30
0.0
  3
*Paper_Space0
  1

  0
ENDBLK
  5
25
100
AcDbEntity
  8
0
100
AcDbBlockEnd
  0
ENDSEC
  0
SECTION
  2
ENTITIES
  0
CIRCLE
  5
47
100
AcDbEntity
100
AcDbCircle
  8
contour
 62
256
370
-1
  6
ByLayer
 10
37.5
 20
65.25
 30
0.0
 40
2.0
  0
CIRCLE
  5
48
100
AcDbEntity
100
AcDbCircle
  8
contour
 62
256
370
-1
  6
ByLayer
 10
62.5
 20
65.25
 30
0.0
 40
2.0
  0
LINE
  5
49
100
AcDbEntity
100
AcDbLine
  8
contour
 62
256
370
-1
  6
ByLayer
 10
41.6757166487194368
 20
60.0
 30
0.0
 11
58.3242833512805561
 21
60.0
 31
0.0
  0
CIRCLE
  5
4A
100
AcDbEntity
100
AcDbCircle
  8
contour
 62
256
370
-1
  6
ByLayer
 10
76.1080000000000041
 20
65.2499999999999858
 30
0.0
 40
2.0
  0
CIRCLE
  5
4B
100
AcDbEntity
100
AcDbCircle
  8
contour
 62
256
370
-1
  6
ByLayer
 10
101.1080000000000041
 20
65.2499999999999858
 30
0.0
 40
2.0
  0
LINE
  5
4C
100
AcDbEntity
100
AcDbLine
  8
contour
 62
256
370
-1
  6
ByLayer
 10
80.2837166487194338
 20
59.9999999999999858
 30
0.0
 11
96.9322833512805602
 21
59.9999999999999858
 31
0.0
  0
CIRCLE
  5
4D
100
AcDbEntity
100
AcDbCircle
  8
contour
 62
256
370
-1
  6
ByLayer
 10
114.4620000000000033
 20
65.2499999999999858
 30
0.0
 40
2.0
  0
CIRCLE
  5
4E
100
AcDbEntity
100
AcDbCircle
  8
contour
 62
256
370
-1
  6
ByLayer
 10
139.4619999999999891
 20
65.2499999999999858
 30
0.0
 40
2.0
  0
LINE
  5
4F
100
AcDbEntity
100
AcDbLine
  8
contour
 62
256
370
-1
  6
ByLayer
 10
118.6377166487194472
 20
59.9999999999999858
 30
0.0
 11
135.2862833512805594
 21
59.9999999999999858
 31
0.0
  0
LINE
  5
50
100
AcDbEntity
100
AcDbLine
  8
cons
 62
256
370
-1
  6
ByLayer
 10
-300.0
 20
190.0
 30
0.0
 11
-219.6850000000000023
 21
190.0
 31
0.0
  0
LINE
  5
51
100
AcDbEntity
100
AcDbLine
  8
cons
 62
256
370
-1
  6
ByLayer
 10
-300.0
 20
190.0
 30
0.0
 11
-300.0
 21
327.5409999999999968
 31
0.0
  0
LINE
  5
52
100
AcDbEntity
100
AcDbLine
  8
cons
 62
256
370
-1
  6
ByLayer
 10
-300.0
 20
327.5409999999999968
 30
0.0
 11
-219.6850000000000023
 21
327.5409999999999968
 31
0.0
  0
LINE
  5
53
100
AcDbEntity
100
AcDbLine
  8
cons
 62
256
370
-1
  6
ByLayer
 10
-219.6850000000000023
 20
190.0
 30
0.0
 11
-219.6850000000000023
 21
327.5409999999999968
 31
0.0
  0
LINE
  5
54
100
AcDbEntity
100
AcDbLine
  8
helper
 62
256
370
-1
  6
ByLayer
 10
59.25
 20
65.25
 30
0.0
 11
79.3580000000000041
 21
65.25
 31
0.0
  0
LINE
  5
55
100
AcDbEntity
100
AcDbLine
  8
helper
 62
256
370
-1
  6
ByLayer
 10
97.8580000000000041
 20
65.25
 30
0.0
 11
117.7120000000000033
 21
65.25
 31
0.0
  0
MTEXT
  5
56
100
AcDbEntity
100
AcDbMText
  8
contour
 62
256
370
-1
  6
ByLayer
 10
33.9371080467695379
 20
61.4928795377362505
 30
0.0
 40
5.0
 41
100.0
 71
5
 72
2
  1
4
  7
normallatin1
 50
0.0
 73
1
 44
1.0
  0
MTEXT
  5
57
100
AcDbEntity
100
AcDbMText
  8
contour
 62
256
370
-1
  6
ByLayer
 10
66.1338515783201188
 20
60.9127580326632696
 30
0.0
 40
5.0
 41
100.0
 71
5
 72
2
  1
4
  7
normallatin1
 50
0.0
 73
1
 44
1.0
  0
MTEXT
  5
58
100
AcDbEntity
100
AcDbMText
  8
contour
 62
256
370
-1
  6
ByLayer
 10
73.820461520537151
 20
60.7677276563950244
 30
0.0
 40
5.0
 41
100.0
 71
5
 72
2
  1
4
  7
normallatin1
 50
0.0
 73
1
 44
1.0
  0
MTEXT
  5
59
100
AcDbEntity
100
AcDbMText
  8
contour
 62
256
370
-1
  6
ByLayer
 10
103.6967190317958085
 20
61.20281878519976
 30
0.0
 40
5.0
 41
100.0
 71
5
 72
2
  1
4
  7
normallatin1
 50
0.0
 73
1
 44
1.0
  0
MTEXT
  5
5A
100
AcDbEntity
100
AcDbMText
  8
contour
 62
256
370
-1
  6
ByLayer
 10
112.1084808553540597
 20
61.0577884089315148
 30
0.0
 40
5.0
 41
100.0
 71
5
 72
2
  1
4
  7
normallatin1
 50
0.0
 73
1
 44
1.0
  0
MTEXT
  5
5B
100
AcDbEntity
100
AcDbMText
  8
contour
 62
256
370
-1
  6
ByLayer
 10
142.5648598716856839
 20
60.6226972801267792
 30
0.0
 40
5.0
 41
100.0
 71
5
 72
2
  1
4
  7
normallatin1
 50
0.0
 73
1
 44
1.0
  0
LINE
  5
5C
100
AcDbEntity
100
AcDbLine
  8
bend
 62
256
370
-1
  6
ByLayer
 10
60.6429831475968726
 20
72.5499999999999972
 30
0.0
 11
77.9650168524031528
 21
72.5499999999999972
 31
0.0
  0
LINE
  5
5D
100
AcDbEntity
100
AcDbLine
  8
bend
 62
256
370
-1
  6
ByLayer
 10
99.0393907707467207
 20
72.5499999999999829
 30
0.0
 11
116.5306092292532867
 21
72.5499999999999829
 31
0.0
  0
LINE
  5
5E
100
AcDbEntity
100
AcDbLine
  8
helper
 62
256
370
-1
  6
ByLayer
 10
37.5
 20
52.2000000000000881
 30
0.0
 11
37.5
 21
72.5499999999999972
 31
0.0
  0
LINE
  5
5F
100
AcDbEntity
100
AcDbLine
  8
helper
 62
256
370
-1
  6
ByLayer
 10
62.5
 20
52.2000000000001663
 30
0.0
 11
62.5
 21
72.5499999999999972
 31
0.0
  0
LINE
  5
60
100
AcDbEntity
100
AcDbLine
  8
helper
 62
256
370
-1
  6
ByLayer
 10
76.1080000000000041
 20
52.200000000000216
 30
0.0
 11
76.1080000000000041
 21
72.5499999999999972
 31
0.0
  0
LINE
  5
61
100
AcDbEntity
100
AcDbLine
  8
helper
 62
256
370
-1
  6
ByLayer
 10
101.1080000000000041
 20
52.2000000000002942
 30
0.0
 11
101.1080000000000041
 21
72.5499999999999972
 31
0.0
  0
LINE
  5
62
100
AcDbEntity
100
AcDbLine
  8
helper
 62
256
370
-1
  6
ByLayer
 10
114.4620000000000033
 20
52.2000000000003368
 30
0.0
 11
114.4620000000000033
 21
72.5499999999999972
 31
0.0
  0
LINE
  5
63
100
AcDbEntity
100
AcDbLine
  8
helper
 62
256
370
-1
  6
ByLayer
 10
139.4619999999999891
 20
52.200000000000415
 30
0.0
 11
139.4619999999999891
 21
72.5499999999999972
 31
0.0
  0
LINE
  5
64
100
AcDbEntity
100
AcDbLine
  8
helper
 62
256
370
-1
  6
ByLayer
 10
8.9400000000000013
 20
65.25
 30
0.0
 11
40.75
 21
65.25
 31
0.0
  0
LINE
  5
65
100
AcDbEntity
100
AcDbLine
  8
contour
 62
256
370
-1
  6
ByLayer
 10
8.9400000000000013
 20
52.1999999999999957
 30
0.0
 11
8.9400000000000013
 21
72.5499999999999972
 31
0.0
  0
LINE
  5
66
100
AcDbEntity
100
AcDbLine
  8
helper
 62
256
370
-1
  6
ByLayer
 10
136.2120000000000175
 20
65.25
 30
0.0
 11
145.4809999999999945
 21
65.25
 31
0.0
  0
LINE
  5
67
100
AcDbEntity
100
AcDbLine
  8
bend
 62
256
370
-1
  6
ByLayer
 10
137.6049831475968972
 20
72.5499999999999972
 30
0.0
 11
145.4809999999999945
 21
72.5499999999999972
 31
0.0
  0
LINE
  5
68
100
AcDbEntity
100
AcDbLine
  8
contour
 62
256
370
-1
  6
ByLayer
 10
145.4809999999999945
 20
52.2000000000004363
 30
0.0
 11
145.4809999999999945
 21
72.5499999999999972
 31
0.0
  0
LINE
  5
69
100
AcDbEntity
100
AcDbLine
  8
bend
 62
256
370
-1
  6
ByLayer
 10
8.9400000000000013
 20
52.1999999999999957
 30
0.0
 11
145.4809999999999945
 21
52.2000000000004363
 31
0.0
  0
MTEXT
  5
6A
100
AcDbEntity
100
AcDbMText
  8
contour
 62
256
370
-1
  6
ByLayer
 10
69.63524024022378
 20
70.4886132823833833
 30
0.0
 40
3.0
 41
100.0
 71
5
 72
2
  1
Bend
  7
normallatin1
 50
0.0
 73
0
 44
1.0
  0
MTEXT
  5
6B
100
AcDbEntity
100
AcDbMText
  8
contour
 62
256
370
-1
  6
ByLayer
 10
107.5250033121102575
 20
70.6592878908153068
 30
0.0
 40
3.0
 41
100.0
 71
5
 72
2
  1
Bend
  7
normallatin1
 50
0.0
 73
0
 44
1.0
  0
MTEXT
  5
6C
100
AcDbEntity
100
AcDbMText
  8
contour
 62
256
370
-1
  6
ByLayer
 10
124.4217895468704427
 20
54.4452000897828086
 30
0.0
 40
3.0
 41
100.0
 71
5
 72
2
  1
Bend
  7
normallatin1
 50
0.0
 73
0
 44
1.0
  0
LINE
  5
6D
100
AcDbEntity
100
AcDbLine
  8
contour
 62
256
370
-1
  6
ByLayer
 10
10.0
 20
100.0
 30
0.0
 11
16.0
 21
94.0
 31
0.0
  0
LINE
  5
6E
100
AcDbEntity
100
AcDbLine
  8
contour
 62
256
370
-1
  6
ByLayer
 10
10.0
 20
82.0
 30
0.0
 11
16.0
 21
88.0
 31
0.0
  0
LINE
  5
6F
100
AcDbEntity
100
AcDbLine
  8
contour
 62
256
370
-1
  6
ByLayer
 10
7.5147186257614322
 20
94.0
 30
0.0
 11
7.5147186257614322
 21
88.0
 31
0.0
  0
LINE
  5
70
100
AcDbEntity
100
AcDbLine
  8
bend
 62
256
370
-1
  6
ByLayer
 10
16.0
 20
94.0
 30
0.0
 11
16.0
 21
88.0
 31
0.0
  0
LINE
  5
71
100
AcDbEntity
100
AcDbLine
  8
contour
 62
256
370
-1
  6
ByLayer
 10
32.0
 20
100.0
 30
0.0
 11
10.0
 21
100.0
 31
0.0
  0
LINE
  5
72
100
AcDbEntity
100
AcDbLine
  8
contour
 62
256
370
-1
  6
ByLayer
 10
32.0
 20
82.0
 30
0.0
 11
10.0
 21
82.0
 31
0.0
  0
LINE
  5
73
100
AcDbEntity
100
AcDbLine
  8
contour
 62
256
370
-1
  6
ByLayer
 10
16.0
 20
94.0
 30
0.0
 11
7.5147186257614322
 21
94.0
 31
0.0
  0
LINE
  5
74
100
AcDbEntity
100
AcDbLine
  8
contour
 62
256
370
-1
  6
ByLayer
 10
16.0
 20
88.0
 30
0.0
 11
7.5147186257614322
 21
88.0
 31
0.0
  0
MTEXT
  5
75
100
AcDbEntity
100
AcDbMText
  8
contour
 62
256
370
-1
  6
ByLayer
 10
22.5454330754230874
 20
70.5200174103350008
 30
0.0
 40
3.0
 41
100.0
 71
5
 72
2
  1
Bend
  7
normallatin1
 50
0.0
 73
0
 44
1.0
  0
MTEXT
  5
76
100
AcDbEntity
100
AcDbMText
  8
contour
 62
256
370
-1
  6
ByLayer
 10
23.3319016710773823
 20
85.8124623258351562
 30
0.0
 40
3.0
 41
100.0
 71
5
 72
2
  1
Bend
  7
normallatin1
 50
0.0
 73
0
 44
1.0
  0
MTEXT
  5
77
100
AcDbEntity
100
AcDbMText
  8
contour
 62
256
370
-1
  6
ByLayer
 10
23.0697454725259519
 20
96.7356372654781325
 30
0.0
 40
3.0
 41
100.0
 71
5
 72
2
  1
Bend
  7
normallatin1
 50
0.0
 73
0
 44
1.0
  0
MTEXT
  5
78
100
AcDbEntity
100
AcDbMText
  8
contour
 62
256
370
-1
  6
ByLayer
 10
14.5933617193630418
 20
91.0555862968640213
 30
0.0
 40
1.5
 41
100.0
 71
5
 72
2
  1
Bend
  7
normallatin1
 50
90.0
 73
0
 44
1.0
  0
LINE
  5
79
100
AcDbEntity
100
AcDbLine
  8
bend
 62
256
370
-1
  6
ByLayer
 10
32.0
 20
94.0
 30
0.0
 11
16.0
 21
94.0
 31
0.0
  0
LINE
  5
7A
100
AcDbEntity
100
AcDbLine
  8
bend
 62
256
370
-1
  6
ByLayer
 10
32.0
 20
88.0
 30
0.0
 11
16.0
 21
88.0
 31
0.0
  0
LINE
  5
7B
100
AcDbEntity
100
AcDbLine
  8
contour
 62
256
370
-1
  6
ByLayer
 10
32.0
 20
100.0
 30
0.0
 11
32.0
 21
82.0
 31
0.0
  0
LINE
  5
7C
100
AcDbEntity
100
AcDbLine
  8
contour
 62
256
370
-1
  6
ByLayer
 10
8.9399999999999391
 20
24.2500000000000924
 30
0.0
 11
8.9399999999999391
 21
44.6000000000000938
 31
0.0
  0
LINE
  5
7D
100
AcDbEntity
100
AcDbLine
  8
bend
 62
256
370
-1
  6
ByLayer
 10
8.9399999999999391
 20
24.2500000000000924
 30
0.0
 11
145.4809999999999377
 21
24.2500000000005329
 31
0.0
  0
LINE
  5
7E
100
AcDbEntity
100
AcDbLine
  8
contour
 62
256
370
-1
  6
ByLayer
 10
145.4809999999999377
 20
24.2500000000005329
 30
0.0
 11
145.4809999999999377
 21
44.6000000000000938
 31
0.0
  0
LINE
  5
7F
100
AcDbEntity
100
AcDbLine
  8
bend
 62
256
370
-1
  6
ByLayer
 10
8.9399999999999391
 20
44.6000000000000938
 30
0.0
 11
145.4809999999999377
 21
44.6000000000000938
 31
0.0
  0
MTEXT
  5
80
100
AcDbEntity
100
AcDbMText
  8
contour
 62
256
370
-1
  6
ByLayer
 10
124.933813372166199
 20
42.716747409163311
 30
0.0
 40
3.0
 41
100.0
 71
5
 72
2
  1
Bend
  7
normallatin1
 50
0.0
 73
0
 44
1.0
  0
MTEXT
  5
81
100
AcDbEntity
100
AcDbMText
  8
contour
 62
256
370
-1
  6
ByLayer
 10
124.933813372166199
 20
27.0146834334265762
 30
0.0
 40
3.0
 41
100.0
 71
5
 72
2
  1
Bend
  7
normallatin1
 50
0.0
 73
0
 44
1.0
  0
LINE
  5
82
100
AcDbEntity
100
AcDbLine
  8
contour
 62
256
370
-1
  6
ByLayer
 10
8.9400000000000013
 20
72.5499999999999972
 30
0.0
 11
12.7399999999999842
 21
76.3499999999999801
 31
0.0
  0
LINE
  5
83
100
AcDbEntity
100
AcDbLine
  8
contour
 62
256
370
-1
  6
ByLayer
 10
41.6757166487194368
 20
60.0
 30
0.0
 11
38.7927705141360519
 21
76.3499999999999801
 31
0.0
  0
LINE
  5
84
100
AcDbEntity
100
AcDbLine
  8
contour
 62
256
370
-1
  6
ByLayer
 10
58.3242833512805561
 20
60.0
 30
0.0
 11
61.2072294858639623
 21
76.3499999999999801
 31
0.0
  0
LINE
  5
85
100
AcDbEntity
100
AcDbLine
  8
contour
 62
256
370
-1
  6
ByLayer
 10
80.2837166487194338
 20
59.9999999999999858
 30
0.0
 11
77.4007705141360702
 21
76.3499999999999801
 31
0.0
  0
LINE
  5
86
100
AcDbEntity
100
AcDbLine
  8
contour
 62
256
370
-1
  6
ByLayer
 10
61.2072294858639623
 20
76.3499999999999801
 30
0.0
 11
77.4007705141360702
 21
76.3499999999999801
 31
0.0
  0
LINE
  5
87
100
AcDbEntity
100
AcDbLine
  8
contour
 62
256
370
-1
  6
ByLayer
 10
96.9322833512805602
 20
59.9999999999999858
 30
0.0
 11
99.8152294858639664
 21
76.3499999999999801
 31
0.0
  0
LINE
  5
88
100
AcDbEntity
100
AcDbLine
  8
contour
 62
256
370
-1
  6
ByLayer
 10
118.6377166487194472
 20
59.9999999999999858
 30
0.0
 11
115.754770514136041
 21
76.3499999999999801
 31
0.0
  0
LINE
  5
89
100
AcDbEntity
100
AcDbLine
  8
contour
 62
256
370
-1
  6
ByLayer
 10
99.8152294858639664
 20
76.3499999999999801
 30
0.0
 11
115.754770514136041
 21
76.3499999999999801
 31
0.0
  0
LINE
  5
8A
100
AcDbEntity
100
AcDbLine
  8
contour
 62
256
370
-1
  6
ByLayer
 10
135.2862833512805594
 20
59.9999999999999858
 30
0.0
 11
138.1692294858639798
 21
76.3499999999999801
 31
0.0
  0
LINE
  5
8B
100
AcDbEntity
100
AcDbLine
  8
contour
 62
256
370
-1
  6
ByLayer
 10
141.6810000000000116
 20
76.3499999999999801
 30
0.0
 11
145.4809999999999945
 21
72.5499999999999972
 31
0.0
  0
LINE
  5
8C
100
AcDbEntity
100
AcDbLine
  8
contour
 62
256
370
-1
  6
ByLayer
 10
138.1692294858639798
 20
76.3499999999999801
 30
0.0
 11
141.6810000000000116
 21
76.3499999999999801
 31
0.0
  0
LINE
  5
8D
100
AcDbEntity
100
AcDbLine
  8
contour
 62
256
370
-1
  6
ByLayer
 10
141.6809999999996421
 20
48.4000000000000767
 30
0.0
 11
145.4809999999999945
 21
52.2000000000004363
 31
0.0
  0
LINE
  5
8E
100
AcDbEntity
100
AcDbLine
  8
contour
 62
256
370
-1
  6
ByLayer
 10
141.6809999999999548
 20
48.4000000000000767
 30
0.0
 11
145.4809999999999377
 21
44.6000000000000938
 31
0.0
  0
LINE
  5
8F
100
AcDbEntity
100
AcDbLine
  8
contour
 62
256
370
-1
  6
ByLayer
 10
8.9400000000000013
 20
52.1999999999999957
 30
0.0
 11
12.7399999999999221
 21
48.4000000000000767
 31
0.0
  0
LINE
  5
90
100
AcDbEntity
100
AcDbLine
  8
contour
 62
256
370
-1
  6
ByLayer
 10
8.9399999999999391
 20
44.6000000000000938
 30
0.0
 11
12.7399999999999221
 21
48.4000000000000767
 31
0.0
  0
LINE
  5
91
100
AcDbEntity
100
AcDbLine
  8
contour
 62
256
370
-1
  6
ByLayer
 10
12.7399999999999221
 20
48.4000000000000767
 30
0.0
 11
141.6809999999999548
 21
48.4000000000000767
 31
0.0
  0
LINE
  5
92
100
AcDbEntity
100
AcDbLine
  8
contour
 62
256
370
-1
  6
ByLayer
 10
8.9399999999999391
 20
24.2500000000000924
 30
0.0
 11
12.7399999999998617
 21
20.4500000000001734
 31
0.0
  0
LINE
  5
93
100
AcDbEntity
100
AcDbLine
  8
contour
 62
256
370
-1
  6
ByLayer
 10
141.6809999999994716
 20
20.4500000000000597
 30
0.0
 11
145.4809999999999377
 21
24.2500000000005329
 31
0.0
  0
LINE
  5
94
100
AcDbEntity
100
AcDbLine
  8
contour
 62
256
370
-1
  6
ByLayer
 10
12.7399999999998617
 20
20.4500000000001734
 30
0.0
 11
141.6809999999994716
 21
20.4500000000000597
 31
0.0
  0
LINE
  5
95
100
AcDbEntity
100
AcDbLine
  8
helper
 62
256
370
-1
  6
ByLayer
 10
15.7368440901119193
 20
36.5775173165260981
 30
0.0
 11
20.0568440901119338
 21
36.5775173165260981
 31
0.0
  0
LINE
  5
96
100
AcDbEntity
100
AcDbLine
  8
helper
 62
256
370
-1
  6
ByLayer
 10
15.7368440901119193
 20
34.4175173165260873
 30
0.0
 11
20.0568440901119338
 21
34.4175173165260873
 31
0.0
  0
LINE
  5
97
100
AcDbEntity
100
AcDbLine
  8
helper
 62
256
370
-1
  6
ByLayer
 10
15.7368440901119193
 20
32.2575173165260765
 30
0.0
 11
20.0568440901119338
 21
32.2575173165260765
 31
0.0
  0
LINE
  5
98
100
AcDbEntity
100
AcDbLine
  8
helper
 62
256
370
-1
  6
ByLayer
 10
15.7368440901119193
 20
30.0975173165260834
 30
0.0
 11
20.0568440901119338
 21
30.0975173165260834
 31
0.0
  0
LINE
  5
99
100
AcDbEntity
100
AcDbLine
  8
helper
 62
256
370
-1
  6
ByLayer
 10
15.7368440901119193
 20
27.9375173165260726
 30
0.0
 11
20.0568440901119338
 21
27.9375173165260726
 31
0.0
  0
LINE
  5
9A
100
AcDbEntity
100
AcDbLine
  8
helper
 62
256
370
-1
  6
ByLayer
 10
20.0568440901119338
 20
27.9375173165260726
 30
0.0
 11
20.0568440901119338
 21
36.5775173165260981
 31
0.0
  0
LINE
  5
9B
100
AcDbEntity
100
AcDbLine
  8
helper
 62
256
370
-1
  6
ByLayer
 10
17.8968440901119301
 20
27.9375173165260726
 30
0.0
 11
17.8968440901119301
 21
36.5775173165260981
 31
0.0
  0
LINE
  5
9C
100
AcDbEntity
100
AcDbLine
  8
helper
 62
256
370
-1
  6
ByLayer
 10
15.7368440901119193
 20
27.9375173165260726
 30
0.0
 11
15.7368440901119193
 21
36.5775173165260981
 31
0.0
  0
LINE
  5
9D
100
AcDbEntity
100
AcDbLine
  8
helper
 62
256
370
-1
  6
ByLayer
 10
24.6761121667988768
 20
36.5775173165260981
 30
0.0
 11
28.9961121667988913
 21
36.5775173165260981
 31
0.0
  0
LINE
  5
9E
100
AcDbEntity
100
AcDbLine
  8
helper
 62
256
370
-1
  6
ByLayer
 10
24.6761121667988768
 20
34.4175173165260873
 30
0.0
 11
28.9961121667988913
 21
34.4175173165260873
 31
0.0
  0
LINE
  5
9F
100
AcDbEntity
100
AcDbLine
  8
helper
 62
256
370
-1
  6
ByLayer
 10
24.6761121667988768
 20
32.2575173165260765
 30
0.0
 11
28.9961121667988913
 21
32.2575173165260765
 31
0.0
  0
LINE
  5
A0
100
AcDbEntity
100
AcDbLine
  8
helper
 62
256
370
-1
  6
ByLayer
 10
24.6761121667988768
 20
30.0975173165260834
 30
0.0
 11
28.9961121667988913
 21
30.0975173165260834
 31
0.0
  0
LINE
  5
A1
100
AcDbEntity
100
AcDbLine
  8
helper
 62
256
370
-1
  6
ByLayer
 10
24.6761121667988768
 20
27.9375173165260726
 30
0.0
 11
28.9961121667988913
 21
27.9375173165260726
 31
0.0
  0
LINE
  5
A2
100
AcDbEntity
100
AcDbLine
  8
helper
 62
256
370
-1
  6
ByLayer
 10
28.9961121667988913
 20
27.9375173165260726
 30
0.0
 11
28.9961121667988913
 21
36.5775173165260981
 31
0.0
  0
LINE
  5
A3
100
AcDbEntity
100
AcDbLine
  8
helper
 62
256
370
-1
  6
ByLayer
 10
26.8361121667988876
 20
27.9375173165260726
 30
0.0
 11
26.8361121667988876
 21
36.5775173165260981
 31
0.0
  0
LINE
  5
A4
100
AcDbEntity
100
AcDbLine
  8
helper
 62
256
370
-1
  6
ByLayer
 10
24.6761121667988768
 20
27.9375173165260726
 30
0.0
 11
24.6761121667988768
 21
36.5775173165260981
 31
0.0
  0
LINE
  5
A5
100
AcDbEntity
100
AcDbLine
  8
helper
 62
256
370
-1
  6
ByLayer
 10
33.6153802434858306
 20
36.5775173165260981
 30
0.0
 11
37.9353802434858522
 21
36.5775173165260981
 31
0.0
  0
LINE
  5
A6
100
AcDbEntity
100
AcDbLine
  8
helper
 62
256
370
-1
  6
ByLayer
 10
33.6153802434858306
 20
34.4175173165260873
 30
0.0
 11
37.9353802434858522
 21
34.4175173165260873
 31
0.0
  0
LINE
  5
A7
100
AcDbEntity
100
AcDbLine
  8
helper
 62
256
370
-1
  6
ByLayer
 10
33.6153802434858306
 20
32.2575173165260765
 30
0.0
 11
37.9353802434858522
 21
32.2575173165260765
 31
0.0
  0
LINE
  5
A8
100
AcDbEntity
100
AcDbLine
  8
helper
 62
256
370
-1
  6
ByLayer
 10
33.6153802434858306
 20
30.0975173165260834
 30
0.0
 11
37.9353802434858522
 21
30.0975173165260834
 31
0.0
  0
LINE
  5
A9
100
AcDbEntity
100
AcDbLine
  8
helper
 62
256
370
-1
  6
ByLayer
 10
33.6153802434858306
 20
27.9375173165260726
 30
0.0
 11
37.9353802434858522
 21
27.9375173165260726
 31
0.0
  0
LINE
  5
AA
100
AcDbEntity
100
AcDbLine
  8
helper
 62
256
370
-1
  6
ByLayer
 10
37.9353802434858522
 20
27.9375173165260726
 30
0.0
 11
37.9353802434858522
 21
36.5775173165260981
 31
0.0
  0
LINE
  5
AB
100
AcDbEntity
100
AcDbLine
  8
helper
 62
256
370
-1
  6
ByLayer
 10
35.7753802434858414
 20
27.9375173165260726
 30
0.0
 11
35.7753802434858414
 21
36.5775173165260981
 31
0.0
  0
LINE
  5
AC
100
AcDbEntity
100
AcDbLine
  8
helper
 62
256
370
-1
  6
ByLayer
 10
33.6153802434858306
 20
27.9375173165260726
 30
0.0
 11
33.6153802434858306
 21
36.5775173165260981
 31
0.0
  0
LINE
  5
AD
100
AcDbEntity
100
AcDbLine
  8
helper
 62
256
370
-1
  6
ByLayer
 10
42.5546483201727881
 20
36.5775173165260981
 30
0.0
 11
46.8746483201728097
 21
36.5775173165260981
 31
0.0
  0
LINE
  5
AE
100
AcDbEntity
100
AcDbLine
  8
helper
 62
256
370
-1
  6
ByLayer
 10
42.5546483201727881
 20
34.4175173165260873
 30
0.0
 11
46.8746483201728097
 21
34.4175173165260873
 31
0.0
  0
LINE
  5
AF
100
AcDbEntity
100
AcDbLine
  8
helper
 62
256
370
-1
  6
ByLayer
 10
42.5546483201727881
 20
32.2575173165260765
 30
0.0
 11
46.8746483201728097
 21
32.2575173165260765
 31
0.0
  0
LINE
  5
B0
100
AcDbEntity
100
AcDbLine
  8
helper
 62
256
370
-1
  6
ByLayer
 10
42.5546483201727881
 20
30.0975173165260834
 30
0.0
 11
46.8746483201728097
 21
30.0975173165260834
 31
0.0
  0
LINE
  5
B1
100
AcDbEntity
100
AcDbLine
  8
helper
 62
256
370
-1
  6
ByLayer
 10
42.5546483201727881
 20
27.9375173165260726
 30
0.0
 11
46.8746483201728097
 21
27.9375173165260726
 31
0.0
  0
LINE
  5
B2
100
AcDbEntity
100
AcDbLine
  8
helper
 62
256
370
-1
  6
ByLayer
 10
46.8746483201728097
 20
27.9375173165260726
 30
0.0
 11
46.8746483201728097
 21
36.5775173165260981
 31
0.0
  0
LINE
  5
B3
100
AcDbEntity
100
AcDbLine
  8
helper
 62
256
370
-1
  6
ByLayer
 10
44.7146483201727989
 20
27.9375173165260726
 30
0.0
 11
44.7146483201727989
 21
36.5775173165260981
 31
0.0
  0
LINE
  5
B4
100
AcDbEntity
100
AcDbLine
  8
helper
 62
256
370
-1
  6
ByLayer
 10
42.5546483201727881
 20
27.9375173165260726
 30
0.0
 11
42.5546483201727881
 21
36.5775173165260981
 31
0.0
  0
LINE
  5
B5
100
AcDbEntity
100
AcDbLine
  8
helper
 62
256
370
-1
  6
ByLayer
 10
51.4939163968597455
 20
36.5775173165260981
 30
0.0
 11
55.8139163968597671
 21
36.5775173165260981
 31
0.0
  0
LINE
  5
B6
100
AcDbEntity
100
AcDbLine
  8
helper
 62
256
370
-1
  6
ByLayer
 10
51.4939163968597455
 20
34.4175173165260873
 30
0.0
 11
55.8139163968597671
 21
34.4175173165260873
 31
0.0
  0
LINE
  5
B7
100
AcDbEntity
100
AcDbLine
  8
helper
 62
256
370
-1
  6
ByLayer
 10
51.4939163968597455
 20
32.2575173165260765
 30
0.0
 11
55.8139163968597671
 21
32.2575173165260765
 31
0.0
  0
LINE
  5
B8
100
AcDbEntity
100
AcDbLine
  8
helper
 62
256
370
-1
  6
ByLayer
 10
51.4939163968597455
 20
30.0975173165260834
 30
0.0
 11
55.8139163968597671
 21
30.0975173165260834
 31
0.0
  0
LINE
  5
B9
100
AcDbEntity
100
AcDbLine
  8
helper
 62
256
370
-1
  6
ByLayer
 10
51.4939163968597455
 20
27.9375173165260726
 30
0.0
 11
55.8139163968597671
 21
27.9375173165260726
 31
0.0
  0
LINE
  5
BA
100
AcDbEntity
100
AcDbLine
  8
helper
 62
256
370
-1
  6
ByLayer
 10
55.8139163968597671
 20
27.9375173165260726
 30
0.0
 11
55.8139163968597671
 21
36.5775173165260981
 31
0.0
  0
LINE
  5
BB
100
AcDbEntity
100
AcDbLine
  8
helper
 62
256
370
-1
  6
ByLayer
 10
53.6539163968597563
 20
27.9375173165260726
 30
0.0
 11
53.6539163968597563
 21
36.5775173165260981
 31
0.0
  0
LINE
  5
BC
100
AcDbEntity
100
AcDbLine
  8
helper
 62
256
370
-1
  6
ByLayer
 10
51.4939163968597455
 20
27.9375173165260726
 30
0.0
 11
51.4939163968597455
 21
36.5775173165260981
 31
0.0
  0
LINE
  5
BD
100
AcDbEntity
100
AcDbLine
  8
helper
 62
256
370
-1
  6
ByLayer
 10
60.433184473546703
 20
36.5775173165260981
 30
0.0
 11
64.7531844735467246
 21
36.5775173165260981
 31
0.0
  0
LINE
  5
BE
100
AcDbEntity
100
AcDbLine
  8
helper
 62
256
370
-1
  6
ByLayer
 10
60.433184473546703
 20
34.4175173165260873
 30
0.0
 11
64.7531844735467246
 21
34.4175173165260873
 31
0.0
  0
LINE
  5
BF
100
AcDbEntity
100
AcDbLine
  8
helper
 62
256
370
-1
  6
ByLayer
 10
60.433184473546703
 20
32.2575173165260765
 30
0.0
 11
64.7531844735467246
 21
32.2575173165260765
 31
0.0
  0
LINE
  5
C0
100
AcDbEntity
100
AcDbLine
  8
helper
 62
256
370
-1
  6
ByLayer
 10
60.433184473546703
 20
30.0975173165260834
 30
0.0
 11
64.7531844735467246
 21
30.0975173165260834
 31
0.0
  0
LINE
  5
C1
100
AcDbEntity
100
AcDbLine
  8
helper
 62
256
370
-1
  6
ByLayer
 10
60.433184473546703
 20
27.9375173165260726
 30
0.0
 11
64.7531844735467246
 21
27.9375173165260726
 31
0.0
  0
LINE
  5
C2
100
AcDbEntity
100
AcDbLine
  8
helper
 62
256
370
-1
  6
ByLayer
 10
64.7531844735467246
 20
27.9375173165260726
 30
0.0
 11
64.7531844735467246
 21
36.5775173165260981
 31
0.0
  0
LINE
  5
C3
100
AcDbEntity
100
AcDbLine
  8
helper
 62
256
370
-1
  6
ByLayer
 10
62.5931844735467138
 20
27.9375173165260726
 30
0.0
 11
62.5931844735467138
 21
36.5775173165260981
 31
0.0
  0
LINE
  5
C4
100
AcDbEntity
100
AcDbLine
  8
helper
 62
256
370
-1
  6
ByLayer
 10
60.433184473546703
 20
27.9375173165260726
 30
0.0
 11
60.433184473546703
 21
36.5775173165260981
 31
0.0
  0
LINE
  5
C5
100
AcDbEntity
100
AcDbLine
  8
helper
 62
256
370
-1
  6
ByLayer
 10
69.3724525502336604
 20
36.5775173165260981
 30
0.0
 11
73.692452550233682
 21
36.5775173165260981
 31
0.0
  0
LINE
  5
C6
100
AcDbEntity
100
AcDbLine
  8
helper
 62
256
370
-1
  6
ByLayer
 10
69.3724525502336604
 20
34.4175173165260873
 30
0.0
 11
73.692452550233682
 21
34.4175173165260873
 31
0.0
  0
LINE
  5
C7
100
AcDbEntity
100
AcDbLine
  8
helper
 62
256
370
-1
  6
ByLayer
 10
69.3724525502336604
 20
32.2575173165260765
 30
0.0
 11
73.692452550233682
 21
32.2575173165260765
 31
0.0
  0
LINE
  5
C8
100
AcDbEntity
100
AcDbLine
  8
helper
 62
256
370
-1
  6
ByLayer
 10
69.3724525502336604
 20
30.0975173165260834
 30
0.0
 11
73.692452550233682
 21
30.0975173165260834
 31
0.0
  0
LINE
  5
C9
100
AcDbEntity
100
AcDbLine
  8
helper
 62
256
370
-1
  6
ByLayer
 10
69.3724525502336604
 20
27.9375173165260726
 30
0.0
 11
73.692452550233682
 21
27.9375173165260726
 31
0.0
  0
LINE
  5
CA
100
AcDbEntity
100
AcDbLine
  8
helper
 62
256
370
-1
  6
ByLayer
 10
73.692452550233682
 20
27.9375173165260726
 30
0.0
 11
73.692452550233682
 21
36.5775173165260981
 31
0.0
  0
LINE
  5
CB
100
AcDbEntity
100
AcDbLine
  8
helper
 62
256
370
-1
  6
ByLayer
 10
71.5324525502336712
 20
27.9375173165260726
 30
0.0
 11
71.5324525502336712
 21
36.5775173165260981
 31
0.0
  0
LINE
  5
CC
100
AcDbEntity
100
AcDbLine
  8
helper
 62
256
370
-1
  6
ByLayer
 10
69.3724525502336604
 20
27.9375173165260726
 30
0.0
 11
69.3724525502336604
 21
36.5775173165260981
 31
0.0
  0
LINE
  5
CD
100
AcDbEntity
100
AcDbLine
  8
helper
 62
256
370
-1
  6
ByLayer
 10
78.3117206269206179
 20
36.5775173165260981
 30
0.0
 11
82.6317206269206395
 21
36.5775173165260981
 31
0.0
  0
LINE
  5
CE
100
AcDbEntity
100
AcDbLine
  8
helper
 62
256
370
-1
  6
ByLayer
 10
78.3117206269206179
 20
34.4175173165260873
 30
0.0
 11
82.6317206269206395
 21
34.4175173165260873
 31
0.0
  0
LINE
  5
CF
100
AcDbEntity
100
AcDbLine
  8
helper
 62
256
370
-1
  6
ByLayer
 10
78.3117206269206179
 20
32.2575173165260765
 30
0.0
 11
82.6317206269206395
 21
32.2575173165260765
 31
0.0
  0
LINE
  5
D0
100
AcDbEntity
100
AcDbLine
  8
helper
 62
256
370
-1
  6
ByLayer
 10
78.3117206269206179
 20
30.0975173165260834
 30
0.0
 11
82.6317206269206395
 21
30.0975173165260834
 31
0.0
  0
LINE
  5
D1
100
AcDbEntity
100
AcDbLine
  8
helper
 62
256
370
-1
  6
ByLayer
 10
78.3117206269206179
 20
27.9375173165260726
 30
0.0
 11
82.6317206269206395
 21
27.9375173165260726
 31
0.0
  0
LINE
  5
D2
100
AcDbEntity
100
AcDbLine
  8
helper
 62
256
370
-1
  6
ByLayer
 10
82.6317206269206395
 20
27.9375173165260726
 30
0.0
 11
82.6317206269206395
 21
36.5775173165260981
 31
0.0
  0
LINE
  5
D3
100
AcDbEntity
100
AcDbLine
  8
helper
 62
256
370
-1
  6
ByLayer
 10
80.4717206269206287
 20
27.9375173165260726
 30
0.0
 11
80.4717206269206287
 21
36.5775173165260981
 31
0.0
  0
LINE
  5
D4
100
AcDbEntity
100
AcDbLine
  8
helper
 62
256
370
-1
  6
ByLayer
 10
78.3117206269206179
 20
27.9375173165260726
 30
0.0
 11
78.3117206269206179
 21
36.5775173165260981
 31
0.0
  0
CIRCLE
  5
D5
100
AcDbEntity
100
AcDbCircle
  8
helper
 62
256
370
-1
  6
ByLayer
 10
11.3570681550117705
 20
12.3870772209768205
 30
0.0
 40
0.54
  0
CIRCLE
  5
D6
100
AcDbEntity
100
AcDbCircle
  8
helper
 62
256
370
-1
  6
ByLayer
 10
13.5170681550117813
 20
12.3870772209768205
 30
0.0
 40
0.54
  0
CIRCLE
  5
D7
100
AcDbEntity
100
AcDbCircle
  8
helper
 62
256
370
-1
  6
ByLayer
 10
15.677068155011785
 20
12.3870772209768205
 30
0.0
 40
0.54
  0
CIRCLE
  5
D8
100
AcDbEntity
100
AcDbCircle
  8
helper
 62
256
370
-1
  6
ByLayer
 10
11.3570681550117705
 20
10.2270772209768097
 30
0.0
 40
0.54
  0
CIRCLE
  5
D9
100
AcDbEntity
100
AcDbCircle
  8
helper
 62
256
370
-1
  6
ByLayer
 10
15.677068155011785
 20
10.2270772209768097
 30
0.0
 40
0.54
  0
CIRCLE
  5
DA
100
AcDbEntity
100
AcDbCircle
  8
helper
 62
256
370
-1
  6
ByLayer
 10
11.3570681550117705
 20
8.0670772209767989
 30
0.0
 40
0.54
  0
CIRCLE
  5
DB
100
AcDbEntity
100
AcDbCircle
  8
helper
 62
256
370
-1
  6
ByLayer
 10
15.677068155011785
 20
8.0670772209767989
 30
0.0
 40
0.54
  0
CIRCLE
  5
DC
100
AcDbEntity
100
AcDbCircle
  8
helper
 62
256
370
-1
  6
ByLayer
 10
11.3570681550117705
 20
5.9070772209768023
 30
0.0
 40
0.54
  0
CIRCLE
  5
DD
100
AcDbEntity
100
AcDbCircle
  8
helper
 62
256
370
-1
  6
ByLayer
 10
15.677068155011785
 20
5.9070772209768023
 30
0.0
 40
0.54
  0
CIRCLE
  5
DE
100
AcDbEntity
100
AcDbCircle
  8
helper
 62
256
370
-1
  6
ByLayer
 10
11.3570681550117705
 20
3.7470772209767915
 30
0.0
 40
0.54
  0
CIRCLE
  5
DF
100
AcDbEntity
100
AcDbCircle
  8
helper
 62
256
370
-1
  6
ByLayer
 10
13.5170681550117813
 20
3.7470772209767915
 30
0.0
 40
0.54
  0
CIRCLE
  5
E0
100
AcDbEntity
100
AcDbCircle
  8
helper
 62
256
370
-1
  6
ByLayer
 10
15.677068155011785
 20
3.7470772209767915
 30
0.0
 40
0.54
  0
CIRCLE
  5
E1
100
AcDbEntity
100
AcDbCircle
  8
helper
 62
256
370
-1
  6
ByLayer
 10
24.6163362316987424
 20
12.3870772209768205
 30
0.0
 40
0.54
  0
CIRCLE
  5
E2
100
AcDbEntity
100
AcDbCircle
  8
helper
 62
256
370
-1
  6
ByLayer
 10
24.6163362316987424
 20
10.2270772209768097
 30
0.0
 40
0.54
  0
CIRCLE
  5
E3
100
AcDbEntity
100
AcDbCircle
  8
helper
 62
256
370
-1
  6
ByLayer
 10
24.6163362316987424
 20
8.0670772209767989
 30
0.0
 40
0.54
  0
CIRCLE
  5
E4
100
AcDbEntity
100
AcDbCircle
  8
helper
 62
256
370
-1
  6
ByLayer
 10
24.6163362316987424
 20
5.9070772209768023
 30
0.0
 40
0.54
  0
CIRCLE
  5
E5
100
AcDbEntity
100
AcDbCircle
  8
helper
 62
256
370
-1
  6
ByLayer
 10
24.6163362316987424
 20
3.7470772209767915
 30
0.0
 40
0.54
  0
CIRCLE
  5
E6
100
AcDbEntity
100
AcDbCircle
  8
helper
 62
256
370
-1
  6
ByLayer
 10
22.4563362316987387
 20
10.2270772209768097
 30
0.0
 40
0.5
  0
CIRCLE
  5
E7
100
AcDbEntity
100
AcDbCircle
  8
helper
 62
256
370
-1
  6
ByLayer
 10
29.2356043083856889
 20
12.3870772209768205
 30
0.0
 40
0.54
  0
CIRCLE
  5
E8
100
AcDbEntity
100
AcDbCircle
  8
helper
 62
256
370
-1
  6
ByLayer
 10
31.3956043083856997
 20
12.3870772209768205
 30
0.0
 40
0.54
  0
CIRCLE
  5
E9
100
AcDbEntity
100
AcDbCircle
  8
helper
 62
256
370
-1
  6
ByLayer
 10
33.5556043083856963
 20
10.2270772209768097
 30
0.0
 40
0.54
  0
CIRCLE
  5
EA
100
AcDbEntity
100
AcDbCircle
  8
helper
 62
256
370
-1
  6
ByLayer
 10
31.3956043083856997
 20
8.0670772209767989
 30
0.0
 40
0.54
  0
CIRCLE
  5
EB
100
AcDbEntity
100
AcDbCircle
  8
helper
 62
256
370
-1
  6
ByLayer
 10
29.2356043083856889
 20
5.9070772209768023
 30
0.0
 40
0.54
  0
CIRCLE
  5
EC
100
AcDbEntity
100
AcDbCircle
  8
helper
 62
256
370
-1
  6
ByLayer
 10
29.2356043083856889
 20
3.7470772209767915
 30
0.0
 40
0.54
  0
CIRCLE
  5
ED
100
AcDbEntity
100
AcDbCircle
  8
helper
 62
256
370
-1
  6
ByLayer
 10
31.3956043083856997
 20
3.7470772209767915
 30
0.0
 40
0.54
  0
CIRCLE
  5
EE
100
AcDbEntity
100
AcDbCircle
  8
helper
 62
256
370
-1
  6
ByLayer
 10
33.5556043083856963
 20
3.7470772209767915
 30
0.0
 40
0.54
  0
CIRCLE
  5
EF
100
AcDbEntity
100
AcDbCircle
  8
helper
 62
256
370
-1
  6
ByLayer
 10
38.1748723850726464
 20
12.3870772209768205
 30
0.0
 40
0.54
  0
CIRCLE
  5
F0
100
AcDbEntity
100
AcDbCircle
  8
helper
 62
256
370
-1
  6
ByLayer
 10
40.3348723850726572
 20
12.3870772209768205
 30
0.0
 40
0.54
  0
CIRCLE
  5
F1
100
AcDbEntity
100
AcDbCircle
  8
helper
 62
256
370
-1
  6
ByLayer
 10
42.4948723850726537
 20
10.2270772209768097
 30
0.0
 40
0.54
  0
CIRCLE
  5
F2
100
AcDbEntity
100
AcDbCircle
  8
helper
 62
256
370
-1
  6
ByLayer
 10
38.1748723850726464
 20
8.0670772209767989
 30
0.0
 40
0.54
  0
CIRCLE
  5
F3
100
AcDbEntity
100
AcDbCircle
  8
helper
 62
256
370
-1
  6
ByLayer
 10
40.3348723850726572
 20
8.0670772209767989
 30
0.0
 40
0.54
  0
CIRCLE
  5
F4
100
AcDbEntity
100
AcDbCircle
  8
helper
 62
256
370
-1
  6
ByLayer
 10
42.4948723850726537
 20
5.9070772209768023
 30
0.0
 40
0.54
  0
CIRCLE
  5
F5
100
AcDbEntity
100
AcDbCircle
  8
helper
 62
256
370
-1
  6
ByLayer
 10
38.1748723850726464
 20
3.7470772209767915
 30
0.0
 40
0.54
  0
CIRCLE
  5
F6
100
AcDbEntity
100
AcDbCircle
  8
helper
 62
256
370
-1
  6
ByLayer
 10
40.3348723850726572
 20
3.7470772209767915
 30
0.0
 40
0.54
  0
CIRCLE
  5
F7
100
AcDbEntity
100
AcDbCircle
  8
helper
 62
256
370
-1
  6
ByLayer
 10
47.1141404617596038
 20
12.3870772209768205
 30
0.0
 40
0.54
  0
CIRCLE
  5
F8
100
AcDbEntity
100
AcDbCircle
  8
helper
 62
256
370
-1
  6
ByLayer
 10
47.1141404617596038
 20
10.2270772209768097
 30
0.0
 40
0.54
  0
CIRCLE
  5
F9
100
AcDbEntity
100
AcDbCircle
  8
helper
 62
256
370
-1
  6
ByLayer
 10
51.4341404617596112
 20
10.2270772209768097
 30
0.0
 40
0.54
  0
CIRCLE
  5
FA
100
AcDbEntity
100
AcDbCircle
  8
helper
 62
256
370
-1
  6
ByLayer
 10
47.1141404617596038
 20
8.0670772209767989
 30
0.0
 40
0.54
  0
CIRCLE
  5
FB
100
AcDbEntity
100
AcDbCircle
  8
helper
 62
256
370
-1
  6
ByLayer
 10
49.2741404617596146
 20
8.0670772209767989
 30
0.0
 40
0.54
  0
CIRCLE
  5
FC
100
AcDbEntity
100
AcDbCircle
  8
helper
 62
256
370
-1
  6
ByLayer
 10
51.4341404617596112
 20
8.0670772209767989
 30
0.0
 40
0.54
  0
CIRCLE
  5
FD
100
AcDbEntity
100
AcDbCircle
  8
helper
 62
256
370
-1
  6
ByLayer
 10
51.4341404617596112
 20
5.9070772209768023
 30
0.0
 40
0.54
  0
CIRCLE
  5
FE
100
AcDbEntity
100
AcDbCircle
  8
helper
 62
256
370
-1
  6
ByLayer
 10
51.4341404617596112
 20
3.7470772209767915
 30
0.0
 40
0.54
  0
CIRCLE
  5
FF
100
AcDbEntity
100
AcDbCircle
  8
helper
 62
256
370
-1
  6
ByLayer
 10
56.0534085384465612
 20
12.3870772209768205
 30
0.0
 40
0.54
  0
CIRCLE
  5
100
100
AcDbEntity
100
AcDbCircle
  8
helper
 62
256
370
-1
  6
ByLayer
 10
58.213408538446572
 20
12.3870772209768205
 30
0.0
 40
0.54
  0
CIRCLE
  5
101
100
AcDbEntity
100
AcDbCircle
  8
helper
 62
256
370
-1
  6
ByLayer
 10
60.3734085384465686
 20
12.3870772209768205
 30
0.0
 40
0.54
  0
CIRCLE
  5
102
100
AcDbEntity
100
AcDbCircle
  8
helper
 62
256
370
-1
  6
ByLayer
 10
56.0534085384465612
 20
10.2270772209768097
 30
0.0
 40
0.54
  0
CIRCLE
  5
103
100
AcDbEntity
100
AcDbCircle
  8
helper
 62
256
370
-1
  6
ByLayer
 10
56.0534085384465612
 20
8.0670772209767989
 30
0.0
 40
0.54
  0
CIRCLE
  5
104
100
AcDbEntity
100
AcDbCircle
  8
helper
 62
256
370
-1
  6
ByLayer
 10
58.213408538446572
 20
8.0670772209767989
 30
0.0
 40
0.54
  0
CIRCLE
  5
105
100
AcDbEntity
100
AcDbCircle
  8
helper
 62
256
370
-1
  6
ByLayer
 10
60.3734085384465686
 20
5.9070772209768023
 30
0.0
 40
0.54
  0
CIRCLE
  5
106
100
AcDbEntity
100
AcDbCircle
  8
helper
 62
256
370
-1
  6
ByLayer
 10
56.0534085384465612
 20
3.7470772209767915
 30
0.0
 40
0.54
  0
CIRCLE
  5
107
100
AcDbEntity
100
AcDbCircle
  8
helper
 62
256
370
-1
  6
ByLayer
 10
58.213408538446572
 20
3.7470772209767915
 30
0.0
 40
0.54
  0
CIRCLE
  5
108
100
AcDbEntity
100
AcDbCircle
  8
helper
 62
256
370
-1
  6
ByLayer
 10
67.1526766151335295
 20
12.3870772209768205
 30
0.0
 40
0.54
  0
CIRCLE
  5
109
100
AcDbEntity
100
AcDbCircle
  8
helper
 62
256
370
-1
  6
ByLayer
 10
64.9926766151335187
 20
10.2270772209768097
 30
0.0
 40
0.54
  0
CIRCLE
  5
10A
100
AcDbEntity
100
AcDbCircle
  8
helper
 62
256
370
-1
  6
ByLayer
 10
64.9926766151335187
 20
8.0670772209767989
 30
0.0
 40
0.54
  0
CIRCLE
  5
10B
100
AcDbEntity
100
AcDbCircle
  8
helper
 62
256
370
-1
  6
ByLayer
 10
67.1526766151335295
 20
8.0670772209767989
 30
0.0
 40
0.54
  0
CIRCLE
  5
10C
100
AcDbEntity
100
AcDbCircle
  8
helper
 62
256
370
-1
  6
ByLayer
 10
64.9926766151335187
 20
5.9070772209768023
 30
0.0
 40
0.54
  0
CIRCLE
  5
10D
100
AcDbEntity
100
AcDbCircle
  8
helper
 62
256
370
-1
  6
ByLayer
 10
69.3126766151335261
 20
5.9070772209768023
 30
0.0
 40
0.54
  0
CIRCLE
  5
10E
100
AcDbEntity
100
AcDbCircle
  8
helper
 62
256
370
-1
  6
ByLayer
 10
67.1526766151335295
 20
3.7470772209767915
 30
0.0
 40
0.54
  0
CIRCLE
  5
10F
100
AcDbEntity
100
AcDbCircle
  8
helper
 62
256
370
-1
  6
ByLayer
 10
73.9319446918204761
 20
12.3870772209768205
 30
0.0
 40
0.54
  0
CIRCLE
  5
110
100
AcDbEntity
100
AcDbCircle
  8
helper
 62
256
370
-1
  6
ByLayer
 10
76.0919446918204869
 20
12.3870772209768205
 30
0.0
 40
0.54
  0
CIRCLE
  5
111
100
AcDbEntity
100
AcDbCircle
  8
helper
 62
256
370
-1
  6
ByLayer
 10
78.2519446918204835
 20
12.3870772209768205
 30
0.0
 40
0.54
  0
CIRCLE
  5
112
100
AcDbEntity
100
AcDbCircle
  8
helper
 62
256
370
-1
  6
ByLayer
 10
78.2519446918204835
 20
10.2270772209768097
 30
0.0
 40
0.54
  0
CIRCLE
  5
113
100
AcDbEntity
100
AcDbCircle
  8
helper
 62
256
370
-1
  6
ByLayer
 10
76.0919446918204869
 20
8.0670772209767989
 30
0.0
 40
0.54
  0
CIRCLE
  5
114
100
AcDbEntity
100
AcDbCircle
  8
helper
 62
256
370
-1
  6
ByLayer
 10
76.0919446918204869
 20
3.7470772209767915
 30
0.0
 40
0.54
  0
CIRCLE
  5
115
100
AcDbEntity
100
AcDbCircle
  8
helper
 62
256
370
-1
  6
ByLayer
 10
76.0919446918204869
 20
5.9070772209768023
 30
0.0
 40
0.5
  0
CIRCLE
  5
116
100
AcDbEntity
100
AcDbCircle
  8
helper
 62
256
370
-1
  6
ByLayer
 10
85.0312127685074444
 20
12.3870772209768205
 30
0.0
 40
0.54
  0
CIRCLE
  5
117
100
AcDbEntity
100
AcDbCircle
  8
helper
 62
256
370
-1
  6
ByLayer
 10
82.8712127685074336
 20
10.2270772209768097
 30
0.0
 40
0.54
  0
CIRCLE
  5
118
100
AcDbEntity
100
AcDbCircle
  8
helper
 62
256
370
-1
  6
ByLayer
 10
87.191212768507441
 20
10.2270772209768097
 30
0.0
 40
0.54
  0
CIRCLE
  5
119
100
AcDbEntity
100
AcDbCircle
  8
helper
 62
256
370
-1
  6
ByLayer
 10
85.0312127685074444
 20
8.0670772209767989
 30
0.0
 40
0.54
  0
CIRCLE
  5
11A
100
AcDbEntity
100
AcDbCircle
  8
helper
 62
256
370
-1
  6
ByLayer
 10
82.8712127685074336
 20
5.9070772209768023
 30
0.0
 40
0.54
  0
CIRCLE
  5
11B
100
AcDbEntity
100
AcDbCircle
  8
helper
 62
256
370
-1
  6
ByLayer
 10
87.191212768507441
 20
5.9070772209768023
 30
0.0
 40
0.54
  0
CIRCLE
  5
11C
100
AcDbEntity
100
AcDbCircle
  8
helper
 62
256
370
-1
  6
ByLayer
 10
85.0312127685074444
 20
3.7470772209767915
 30
0.0
 40
0.54
  0
CIRCLE
  5
11D
100
AcDbEntity
100
AcDbCircle
  8
helper
 62
256
370
-1
  6
ByLayer
 10
93.9704808451944018
 20
12.3870772209768205
 30
0.0
 40
0.54
  0
CIRCLE
  5
11E
100
AcDbEntity
100
AcDbCircle
  8
helper
 62
256
370
-1
  6
ByLayer
 10
91.810480845194391
 20
10.2270772209768097
 30
0.0
 40
0.54
  0
CIRCLE
  5
11F
100
AcDbEntity
100
AcDbCircle
  8
helper
 62
256
370
-1
  6
ByLayer
 10
96.1304808451943984
 20
10.2270772209768097
 30
0.0
 40
0.54
  0
CIRCLE
  5
120
100
AcDbEntity
100
AcDbCircle
  8
helper
 62
256
370
-1
  6
ByLayer
 10
93.9704808451944018
 20
8.0670772209767989
 30
0.0
 40
0.54
  0
CIRCLE
  5
121
100
AcDbEntity
100
AcDbCircle
  8
helper
 62
256
370
-1
  6
ByLayer
 10
96.1304808451943984
 20
8.0670772209767989
 30
0.0
 40
0.54
  0
CIRCLE
  5
122
100
AcDbEntity
100
AcDbCircle
  8
helper
 62
256
370
-1
  6
ByLayer
 10
96.1304808451943984
 20
5.9070772209768023
 30
0.0
 40
0.54
  0
CIRCLE
  5
123
100
AcDbEntity
100
AcDbCircle
  8
helper
 62
256
370
-1
  6
ByLayer
 10
93.9704808451944018
 20
3.7470772209767915
 30
0.0
 40
0.54
  0
CIRCLE
  5
124
100
AcDbEntity
100
AcDbCircle
  8
helper
 62
256
370
-1
  6
ByLayer
 10
102.9097489218813593
 20
12.3870772209768205
 30
0.0
 40
0.54
  0
CIRCLE
  5
125
100
AcDbEntity
100
AcDbCircle
  8
helper
 62
256
370
-1
  6
ByLayer
 10
100.7497489218813485
 20
10.2270772209768097
 30
0.0
 40
0.54
  0
CIRCLE
  5
126
100
AcDbEntity
100
AcDbCircle
  8
helper
 62
256
370
-1
  6
ByLayer
 10
105.0697489218813558
 20
10.2270772209768097
 30
0.0
 40
0.54
  0
CIRCLE
  5
127
100
AcDbEntity
100
AcDbCircle
  8
helper
 62
256
370
-1
  6
ByLayer
 10
100.7497489218813485
 20
8.0670772209767989
 30
0.0
 40
0.54
  0
CIRCLE
  5
128
100
AcDbEntity
100
AcDbCircle
  8
helper
 62
256
370
-1
  6
ByLayer
 10
102.9097489218813593
 20
8.0670772209767989
 30
0.0
 40
0.54
  0
CIRCLE
  5
129
100
AcDbEntity
100
AcDbCircle
  8
helper
 62
256
370
-1
  6
ByLayer
 10
105.0697489218813558
 20
8.0670772209767989
 30
0.0
 40
0.54
  0
CIRCLE
  5
12A
100
AcDbEntity
100
AcDbCircle
  8
helper
 62
256
370
-1
  6
ByLayer
 10
100.7497489218813485
 20
5.9070772209768023
 30
0.0
 40
0.54
  0
CIRCLE
  5
12B
100
AcDbEntity
100
AcDbCircle
  8
helper
 62
256
370
-1
  6
ByLayer
 10
105.0697489218813558
 20
5.9070772209768023
 30
0.0
 40
0.54
  0
CIRCLE
  5
12C
100
AcDbEntity
100
AcDbCircle
  8
helper
 62
256
370
-1
  6
ByLayer
 10
100.7497489218813485
 20
3.7470772209767915
 30
0.0
 40
0.54
  0
CIRCLE
  5
12D
100
AcDbEntity
100
AcDbCircle
  8
helper
 62
256
370
-1
  6
ByLayer
 10
105.0697489218813558
 20
3.7470772209767915
 30
0.0
 40
0.54
  0
CIRCLE
  5
12E
100
AcDbEntity
100
AcDbCircle
  8
helper
 62
256
370
-1
  6
ByLayer
 10
109.6890169985683059
 20
12.3870772209768205
 30
0.0
 40
0.54
  0
CIRCLE
  5
12F
100
AcDbEntity
100
AcDbCircle
  8
helper
 62
256
370
-1
  6
ByLayer
 10
111.8490169985683167
 20
12.3870772209768205
 30
0.0
 40
0.54
  0
CIRCLE
  5
130
100
AcDbEntity
100
AcDbCircle
  8
helper
 62
256
370
-1
  6
ByLayer
 10
109.6890169985683059
 20
10.2270772209768097
 30
0.0
 40
0.54
  0
CIRCLE
  5
131
100
AcDbEntity
100
AcDbCircle
  8
helper
 62
256
370
-1
  6
ByLayer
 10
114.0090169985683133
 20
10.2270772209768097
 30
0.0
 40
0.54
  0
CIRCLE
  5
132
100
AcDbEntity
100
AcDbCircle
  8
helper
 62
256
370
-1
  6
ByLayer
 10
109.6890169985683059
 20
8.0670772209767989
 30
0.0
 40
0.54
  0
CIRCLE
  5
133
100
AcDbEntity
100
AcDbCircle
  8
helper
 62
256
370
-1
  6
ByLayer
 10
111.8490169985683167
 20
8.0670772209767989
 30
0.0
 40
0.54
  0
CIRCLE
  5
134
100
AcDbEntity
100
AcDbCircle
  8
helper
 62
256
370
-1
  6
ByLayer
 10
109.6890169985683059
 20
5.9070772209768023
 30
0.0
 40
0.54
  0
CIRCLE
  5
135
100
AcDbEntity
100
AcDbCircle
  8
helper
 62
256
370
-1
  6
ByLayer
 10
114.0090169985683133
 20
5.9070772209768023
 30
0.0
 40
0.54
  0
CIRCLE
  5
136
100
AcDbEntity
100
AcDbCircle
  8
helper
 62
256
370
-1
  6
ByLayer
 10
109.6890169985683059
 20
3.7470772209767915
 30
0.0
 40
0.54
  0
CIRCLE
  5
137
100
AcDbEntity
100
AcDbCircle
  8
helper
 62
256
370
-1
  6
ByLayer
 10
111.8490169985683167
 20
3.7470772209767915
 30
0.0
 40
0.54
  0
CIRCLE
  5
138
100
AcDbEntity
100
AcDbCircle
  8
helper
 62
256
370
-1
  6
ByLayer
 10
120.7882850752552741
 20
12.3870772209768205
 30
0.0
 40
0.54
  0
CIRCLE
  5
139
100
AcDbEntity
100
AcDbCircle
  8
helper
 62
256
370
-1
  6
ByLayer
 10
122.9482850752552707
 20
12.3870772209768205
 30
0.0
 40
0.54
  0
CIRCLE
  5
13A
100
AcDbEntity
100
AcDbCircle
  8
helper
 62
256
370
-1
  6
ByLayer
 10
118.6282850752552633
 20
10.2270772209768097
 30
0.0
 40
0.54
  0
CIRCLE
  5
13B
100
AcDbEntity
100
AcDbCircle
  8
helper
 62
256
370
-1
  6
ByLayer
 10
118.6282850752552633
 20
8.0670772209767989
 30
0.0
 40
0.54
  0
CIRCLE
  5
13C
100
AcDbEntity
100
AcDbCircle
  8
helper
 62
256
370
-1
  6
ByLayer
 10
118.6282850752552633
 20
5.9070772209768023
 30
0.0
 40
0.54
  0
CIRCLE
  5
13D
100
AcDbEntity
100
AcDbCircle
  8
helper
 62
256
370
-1
  6
ByLayer
 10
120.7882850752552741
 20
3.7470772209767915
 30
0.0
 40
0.54
  0
CIRCLE
  5
13E
100
AcDbEntity
100
AcDbCircle
  8
helper
 62
256
370
-1
  6
ByLayer
 10
122.9482850752552707
 20
3.7470772209767915
 30
0.0
 40
0.54
  0
CIRCLE
  5
13F
100
AcDbEntity
100
AcDbCircle
  8
helper
 62
256
370
-1
  6
ByLayer
 10
127.5675531519422066
 20
12.3870772209768205
 30
0.0
 40
0.54
  0
CIRCLE
  5
140
100
AcDbEntity
100
AcDbCircle
  8
helper
 62
256
370
-1
  6
ByLayer
 10
129.7275531519422316
 20
12.3870772209768205
 30
0.0
 40
0.54
  0
CIRCLE
  5
141
100
AcDbEntity
100
AcDbCircle
  8
helper
 62
256
370
-1
  6
ByLayer
 10
127.5675531519422066
 20
10.2270772209768097
 30
0.0
 40
0.54
  0
CIRCLE
  5
142
100
AcDbEntity
100
AcDbCircle
  8
helper
 62
256
370
-1
  6
ByLayer
 10
131.8875531519422282
 20
10.2270772209768097
 30
0.0
 40
0.54
  0
CIRCLE
  5
143
100
AcDbEntity
100
AcDbCircle
  8
helper
 62
256
370
-1
  6
ByLayer
 10
127.5675531519422066
 20
8.0670772209767989
 30
0.0
 40
0.54
  0
CIRCLE
  5
144
100
AcDbEntity
100
AcDbCircle
  8
helper
 62
256
370
-1
  6
ByLayer
 10
131.8875531519422282
 20
8.0670772209767989
 30
0.0
 40
0.54
  0
CIRCLE
  5
145
100
AcDbEntity
100
AcDbCircle
  8
helper
 62
256
370
-1
  6
ByLayer
 10
127.5675531519422066
 20
5.9070772209768023
 30
0.0
 40
0.54
  0
CIRCLE
  5
146
100
AcDbEntity
100
AcDbCircle
  8
helper
 62
256
370
-1
  6
ByLayer
 10
131.8875531519422282
 20
5.9070772209768023
 30
0.0
 40
0.54
  0
CIRCLE
  5
147
100
AcDbEntity
100
AcDbCircle
  8
helper
 62
256
370
-1
  6
ByLayer
 10
127.5675531519422066
 20
3.7470772209767915
 30
0.0
 40
0.54
  0
CIRCLE
  5
148
100
AcDbEntity
100
AcDbCircle
  8
helper
 62
256
370
-1
  6
ByLayer
 10
129.7275531519422316
 20
3.7470772209767915
 30
0.0
 40
0.54
  0
CIRCLE
  5
149
100
AcDbEntity
100
AcDbCircle
  8
helper
 62
256
370
-1
  6
ByLayer
 10
136.5068212286291782
 20
12.3870772209768205
 30
0.0
 40
0.54
  0
CIRCLE
  5
14A
100
AcDbEntity
100
AcDbCircle
  8
helper
 62
256
370
-1
  6
ByLayer
 10
138.6668212286291748
 20
12.3870772209768205
 30
0.0
 40
0.54
  0
CIRCLE
  5
14B
100
AcDbEntity
100
AcDbCircle
  8
helper
 62
256
370
-1
  6
ByLayer
 10
140.8268212286291998
 20
12.3870772209768205
 30
0.0
 40
0.54
  0
CIRCLE
  5
14C
100
AcDbEntity
100
AcDbCircle
  8
helper
 62
256
370
-1
  6
ByLayer
 10
136.5068212286291782
 20
10.2270772209768097
 30
0.0
 40
0.54
  0
CIRCLE
  5
14D
100
AcDbEntity
100
AcDbCircle
  8
helper
 62
256
370
-1
  6
ByLayer
 10
136.5068212286291782
 20
8.0670772209767989
 30
0.0
 40
0.54
  0
CIRCLE
  5
14E
100
AcDbEntity
100
AcDbCircle
  8
helper
 62
256
370
-1
  6
ByLayer
 10
138.6668212286291748
 20
8.0670772209767989
 30
0.0
 40
0.54
  0
CIRCLE
  5
14F
100
AcDbEntity
100
AcDbCircle
  8
helper
 62
256
370
-1
  6
ByLayer
 10
136.5068212286291782
 20
5.9070772209768023
 30
0.0
 40
0.54
  0
CIRCLE
  5
150
100
AcDbEntity
100
AcDbCircle
  8
helper
 62
256
370
-1
  6
ByLayer
 10
136.5068212286291782
 20
3.7470772209767915
 30
0.0
 40
0.54
  0
CIRCLE
  5
151
100
AcDbEntity
100
AcDbCircle
  8
helper
 62
256
370
-1
  6
ByLayer
 10
138.6668212286291748
 20
3.7470772209767915
 30
0.0
 40
0.54
  0
CIRCLE
  5
152
100
AcDbEntity
100
AcDbCircle
  8
helper
 62
256
370
-1
  6
ByLayer
 10
140.8268212286291998
 20
3.7470772209767915
 30
0.0
 40
0.54
  0
CIRCLE
  5
153
100
AcDbEntity
100
AcDbCircle
  8
helper
 62
256
370
-1
  6
ByLayer
 10
145.4460893053161215
 20
12.3870772209768205
 30
0.0
 40
0.54
  0
CIRCLE
  5
154
100
AcDbEntity
100
AcDbCircle
  8
helper
 62
256
370
-1
  6
ByLayer
 10
147.606089305316118
 20
12.3870772209768205
 30
0.0
 40
0.54
  0
CIRCLE
  5
155
100
AcDbEntity
100
AcDbCircle
  8
helper
 62
256
370
-1
  6
ByLayer
 10
149.7660893053161431
 20
12.3870772209768205
 30
0.0
 40
0.54
  0
CIRCLE
  5
156
100
AcDbEntity
100
AcDbCircle
  8
helper
 62
256
370
-1
  6
ByLayer
 10
145.4460893053161215
 20
10.2270772209768097
 30
0.0
 40
0.54
  0
CIRCLE
  5
157
100
AcDbEntity
100
AcDbCircle
  8
helper
 62
256
370
-1
  6
ByLayer
 10
145.4460893053161215
 20
8.0670772209767989
 30
0.0
 40
0.54
  0
CIRCLE
  5
158
100
AcDbEntity
100
AcDbCircle
  8
helper
 62
256
370
-1
  6
ByLayer
 10
147.606089305316118
 20
8.0670772209767989
 30
0.0
 40
0.54
  0
CIRCLE
  5
159
100
AcDbEntity
100
AcDbCircle
  8
helper
 62
256
370
-1
  6
ByLayer
 10
145.4460893053161215
 20
5.9070772209768023
 30
0.0
 40
0.54
  0
CIRCLE
  5
15A
100
AcDbEntity
100
AcDbCircle
  8
helper
 62
256
370
-1
  6
ByLayer
 10
145.4460893053161215
 20
3.7470772209767915
 30
0.0
 40
0.54
  0
LINE
  5
15B
100
AcDbEntity
100
AcDbLine
  8
bend
 62
256
370
-1
  6
ByLayer
 10
8.9400000000000013
 20
72.5499999999999972
 30
0.0
 11
39.4628130408282161
 21
72.5499999999999972
 31
0.0
  0
LINE
  5
15C
100
AcDbEntity
100
AcDbLine
  8
contour
 62
256
370
-1
  6
ByLayer
 10
12.7399999999999842
 20
76.3499999999999801
 30
0.0
 11
38.7927705141360519
 21
76.3499999999999801
 31
0.0
  0
LINE
  5
15D
100
AcDbEntity
100
AcDbLine
  8
contour
 62
256
370
-1
  6
ByLayer
 10
39.1436762460395897
 20
82.4688361581565914
 30
0.0
 11
58.9873962375355987
 21
82.4688361581566056
 31
0.0
  0
LINE
  5
15E
100
AcDbEntity
100
AcDbLine
  8
contour
 62
256
370
-1
  6
ByLayer
 10
58.9873962375355987
 20
82.4688361581566056
 30
0.0
 11
60.018909074680117
 21
88.3188361581565715
 31
0.0
  0
LINE
  5
15F
100
AcDbEntity
100
AcDbLine
  8
contour
 62
256
370
-1
  6
ByLayer
 10
38.1121634088950785
 20
88.3188361581565715
 30
0.0
 11
60.018909074680117
 21
88.3188361581565715
 31
0.0
  0
LINE
  5
160
100
AcDbEntity
100
AcDbLine
  8
contour
 62
256
370
-1
  6
ByLayer
 10
38.1121634088950785
 20
88.3188361581565715
 30
0.0
 11
39.1436762460395897
 21
82.4688361581565914
 31
0.0
  0
MTEXT
  5
161
100
AcDbEntity
100
AcDbMText
  8
contour
 62
256
370
-1
  6
ByLayer
 10
49.1398329983977575
 20
86.437102365602712
 30
0.0
 40
2.7000000000000002
 41
100.0
 71
5
 72
0
  1
Bend
  7

 50
0.0
 73
1
 44
1.0
  0
LINE
  5
162
100
AcDbEntity
100
AcDbLine
  8
bend
 62
256
370
-1
  6
ByLayer
 10
38.7822059355872426
 20
84.5188361581565886
 30
0.0
 11
59.3488665479879529
 21
84.5188361581565886
 31
0.0
  0
LINE
  5
163
100
AcDbEntity
100
AcDbLine
  8
contour
 62
256
370
-1
  6
ByLayer
 10
39.1436762460395897
 20
88.3188361581565715
 30
0.0
 11
58.9873962375355987
 21
88.3188361581565857
 31
0.0
  0
LINE
  5
164
100
AcDbEntity
100
AcDbLine
  8
contour
 62
256
370
-1
  6
ByLayer
 10
58.9873962375355987
 20
88.3188361581565857
 30
0.0
 11
60.018909074680117
 21
94.1688361581565516
 31
0.0
  0
LINE
  5
165
100
AcDbEntity
100
AcDbLine
  8
contour
 62
256
370
-1
  6
ByLayer
 10
38.1121634088950785
 20
94.1688361581565516
 30
0.0
 11
60.018909074680117
 21
94.1688361581565516
 31
0.0
  0
LINE
  5
166
100
AcDbEntity
100
AcDbLine
  8
contour
 62
256
370
-1
  6
ByLayer
 10
38.1121634088950785
 20
94.1688361581565516
 30
0.0
 11
39.1436762460395897
 21
88.3188361581565715
 31
0.0
  0
MTEXT
  5
167
100
AcDbEntity
100
AcDbMText
  8
contour
 62
256
370
-1
  6
ByLayer
 10
49.1398329983977575
 20
92.2871023656026921
 30
0.0
 40
2.7000000000000002
 41
100.0
 71
5
 72
0
  1
Bend
  7

 50
0.0
 73
1
 44
1.0
  0
LINE
  5
168
100
AcDbEntity
100
AcDbLine
  8
bend
 62
256
370
-1
  6
ByLayer
 10
38.7822059355872426
 20
90.3688361581565687
 30
0.0
 11
59.3488665479879529
 21
90.3688361581565687
 31
0.0
  0
LINE
  5
169
100
AcDbEntity
100
AcDbLine
  8
contour
 62
256
370
-1
  6
ByLayer
 10
39.1436762460395897
 20
94.1688361581565516
 30
0.0
 11
58.9873962375355987
 21
94.1688361581565658
 31
0.0
  0
LINE
  5
16A
100
AcDbEntity
100
AcDbLine
  8
contour
 62
256
370
-1
  6
ByLayer
 10
58.9873962375355987
 20
94.1688361581565658
 30
0.0
 11
60.018909074680117
 21
100.0188361581565317
 31
0.0
  0
LINE
  5
16B
100
AcDbEntity
100
AcDbLine
  8
contour
 62
256
370
-1
  6
ByLayer
 10
38.1121634088950785
 20
100.0188361581565317
 30
0.0
 11
60.018909074680117
 21
100.0188361581565317
 31
0.0
  0
LINE
  5
16C
100
AcDbEntity
100
AcDbLine
  8
contour
 62
256
370
-1
  6
ByLayer
 10
38.1121634088950785
 20
100.0188361581565317
 30
0.0
 11
39.1436762460395897
 21
94.1688361581565516
 31
0.0
  0
MTEXT
  5
16D
100
AcDbEntity
100
AcDbMText
  8
contour
 62
256
370
-1
  6
ByLayer
 10
49.1398329983977575
 20
98.1371023656026722
 30
0.0
 40
2.7000000000000002
 41
100.0
 71
5
 72
0
  1
Bend
  7

 50
0.0
 73
1
 44
1.0
  0
LINE
  5
16E
100
AcDbEntity
100
AcDbLine
  8
bend
 62
256
370
-1
  6
ByLayer
 10
38.7822059355872426
 20
96.2188361581565488
 30
0.0
 11
59.3488665479879529
 21
96.2188361581565488
 31
0.0
  0
ENDSEC
  0
SECTION
  2
OBJECTS
  0
DICTIONARY
  5
C
100
AcDbDictionary
280
0
281
1
  3
ACAD_GROUP
350
D
  3
ACAD_LAYOUT
350
1A
  3
ACAD_MLINESTYLE
350
17
  3
ACAD_PLOTSETTINGS
350
19
  3
ACAD_PLOTSTYLENAME
350
E
  3
AcDbVariableDictionary
350
16F
  0
DICTIONARY
  5
D
100
AcDbDictionary
280
0
281
1
  0
ACDBDICTIONARYWDFLT
  5
E
100
AcDbDictionary
281
1
  3
Normal
350
F
100
AcDbDictionaryWithDefault
340
F
  0
ACDBPLACEHOLDER
  5
F
  0
DICTIONARY
  5
17
100
AcDbDictionary
280
0
281
1
  3
Standard
350
18
  0
MLINESTYLE
  5
18
100
AcDbMlineStyle
  2
STANDARD
 70
0
  3

 62
256
 51
90.0
 52
90.0
 71
2
 49
0.5
 62
256
  6
BYLAYER
 49
-0.5
 62
256
  6
BYLAYER
  0
DICTIONARY
  5
19
100
AcDbDictionary
280
0
281
1
  0
DICTIONARY
  5
1A
100
AcDbDictionary
281
1
  3
Layout1
350
1E
  3
Layout2
350
26
  3
Model
350
22
  0
LAYOUT
  5
1E
100
AcDbPlotSettings
  1

  2
C:\Program Files\AutoCAD 2002\plotters\DWF ePlot (optimized for plotting).pc3
  4

  6

 40
0.0
 41
0.0
 42
0.0
 43
0.0
 44
0.0
 45
0.0
 46
0.0
 47
0.0
 48
0.0
 49
0.0
140
0.0
141
0.0
142
1.0
143
1.0
 70
688
 72
0
 73
0
 74
5
  7

 75
16
147
1.0
148
0.0
149
0.0
100
AcDbLayout
  1
Layout1
 70
1
 71
1
 10
0.0
 20
0.0
 11
420.0
 21
297.0
 12
0.0
 22
0.0
 32
0.0
 14
100000000000000000000.0
 24
100000000000000000000.0
 34
100000000000000000000.0
 15
-100000000000000000000.0
 25
-100000000000000000000.0
 35
-100000000000000000000.0
146
0.0
 13
0.0
 23
0.0
 33
0.0
 16
1.0
 26
0.0
 36
0.0
 17
0.0
 27
1.0
 37
0.0
 76
0
330
1B
  0
LAYOUT
  5
22
100
AcDbPlotSettings
  1

  2
C:\Program Files\AutoCAD 2002\plotters\DWF ePlot (optimized for plotting).pc3
  4

  6

 40
0.0
 41
0.0
 42
0.0
 43
0.0
 44
0.0
 45
0.0
 46
0.0
 47
0.0
 48
0.0
 49
0.0
140
0.0
141
0.0
142
1.0
143
1.0
 70
1712
 72
0
 73
0
 74
0
  7

 75
0
147
1.0
148
0.0
149
0.0
100
AcDbLayout
  1
Model
 70
1
 71
0
 10
0.0
 20
0.0
 11
12.0
 21
9.0
 12
0.0
 22
0.0
 32
0.0
 14
0.0
 24
0.0
 34
0.0
 15
0.0
 25
0.0
 35
0.0
146
0.0
 13
0.0
 23
0.0
 33
0.0
 16
1.0
 26
0.0
 36
0.0
 17
0.0
 27
1.0
 37
0.0
 76
0
330
1F
  0
LAYOUT
  5
26
100
AcDbPlotSettings
  1

  2
C:\Program Files\AutoCAD 2002\plotters\DWF ePlot (optimized for plotting).pc3
  4

  6

 40
0.0
 41
0.0
 42
0.0
 43
0.0
 44
0.0
 45
0.0
 46
0.0
 47
0.0
 48
0.0
 49
0.0
140
0.0
141
0.0
142
1.0
143
1.0
 70
688
 72
0
 73
0
 74
5
  7

 75
16
147
1.0
148
0.0
149
0.0
100
AcDbLayout
  1
Layout2
 70
1
 71
2
 10
0.0
 20
0.0
 11
12.0
 21
9.0
 12
0.0
 22
0.0
 32
0.0
 14
0.0
 24
0.0
 34
0.0
 15
0.0
 25
0.0
 35
0.0
146
0.0
 13
0.0
 23
0.0
 33
0.0
 16
1.0
 26
0.0
 36
0.0
 17
0.0
 27
1.0
 37
0.0
 76
0
330
23
  0
DICTIONARY
  5
16F
100
AcDbDictionary
281
1
  3
DIMASSOC
350
171
  3
HIDETEXT
350
170
  0
DICTIONARYVAR
  5
170
100
DictionaryVariables
280
0
  1
2
  0
DICTIONARYVAR
  5
171
100
DictionaryVariables
280
0
  1
1
  0
ENDSEC
  0
EOF
