999
dxflib 2.0.4.8
  0
SECTION
  2
HEADER
  9
$ACADVER
  1
AC1015
  9
$HANDSEED
  5
FFFF
  9
$DIMASZ
 40
2.5
  9
$DIMGAP
 40
0.625
  9
$INSUNITS
 70
4
  9
$DIMEXO
 40
0.625
  9
$DIMTXT
 40
2.5
  9
$DIMSTYLE
  2
Standard
  9
$PLIMMIN
 10
0.0
 20
0.0
  9
$PLIMMAX
 10
210.0
 20
297.0
  9
$PINSBASE
 10
182.6932124352331073
 20
-215.1965803108806767
 30
0.0
  9
$DIMEXE
 40
1.25
  0
ENDSEC
  0
SECTION
  2
TABLES
  0
TABLE
  2
VPORT
  5
8
100
AcDbSymbolTable
 70
1
  0
VPORT
  5
30
100
AcDbSymbolTableRecord
100
AcDbViewportTableRecord
  2
*Active
 70
0
 10
0.0
 20
0.0
 11
1.0
 21
1.0
 12
286.3055555555554861
 22
148.5
 13
0.0
 23
0.0
 14
10.0
 24
10.0
 15
10.0
 25
10.0
 16
0.0
 26
0.0
 36
1.0
 17
0.0
 27
0.0
 37
0.0
 40
297.0
 41
1.92798353909465
 42
50.0
 43
0.0
 44
0.0
 50
0.0
 51
0.0
 71
0
 72
100
 73
1
 74
3
 75
1
 76
1
 77
0
 78
0
281
0
 65
1
110
0.0
120
0.0
130
0.0
111
1.0
121
0.0
131
0.0
112
0.0
122
1.0
132
0.0
 79
0
146
0.0
  0
ENDTAB
  0
TABLE
  2
LTYPE
  5
5
100
AcDbSymbolTable
 70
21
  0
LTYPE
  5
14
100
AcDbSymbolTableRecord
100
AcDbLinetypeTableRecord
  2
ByBlock
 70
0
  3

 72
65
 73
0
 40
0.0
  0
LTYPE
  5
15
100
AcDbSymbolTableRecord
100
AcDbLinetypeTableRecord
  2
ByLayer
 70
0
  3

 72
65
 73
0
 40
0.0
  0
LTYPE
  5
16
100
AcDbSymbolTableRecord
100
AcDbLinetypeTableRecord
  2
CONTINUOUS
 70
0
  3
Solid line
 72
65
 73
0
 40
0.0
  0
LTYPE
  5
31
100
AcDbSymbolTableRecord
100
AcDbLinetypeTableRecord
  2
DOT
 70
0
  3
Dot . . . . . . . . . . . . . . . . . . . . . .
 72
65
 73
2
 40
6.3499999999999996
 49
0.0
 74
0
 49
-6.3499999999999996
 74
0
  0
LTYPE
  5
32
100
AcDbSymbolTableRecord
100
AcDbLinetypeTableRecord
  2
DOT2
 70
0
  3
Dot (.5x) .....................................
 72
65
 73
2
 40
3.1749999999999998
 49
0.0
 74
0
 49
-3.1749999999999998
 74
0
  0
LTYPE
  5
33
100
AcDbSymbolTableRecord
100
AcDbLinetypeTableRecord
  2
DOTX2
 70
0
  3
Dot (2x) .  .  .  .  .  .  .  .  .  .  .  .  .
 72
65
 73
2
 40
12.6999999999999993
 49
0.0
 74
0
 49
-12.6999999999999993
 74
0
  0
LTYPE
  5
34
100
AcDbSymbolTableRecord
100
AcDbLinetypeTableRecord
  2
DASHED
 70
0
  3
Dashed __ __ __ __ __ __ __ __ __ __ __ __ __ _
 72
65
 73
2
 40
19.0500000000000007
 49
12.6999999999999993
 74
0
 49
-6.3499999999999996
 74
0
  0
LTYPE
  5
35
100
AcDbSymbolTableRecord
100
AcDbLinetypeTableRecord
  2
DASHED2
 70
0
  3
Dashed (.5x) _ _ _ _ _ _ _ _ _ _ _ _ _ _ _ _ _
 72
65
 73
2
 40
9.5250000000000004
 49
6.3499999999999996
 74
0
 49
-3.1749999999999998
 74
0
  0
LTYPE
  5
36
100
AcDbSymbolTableRecord
100
AcDbLinetypeTableRecord
  2
DASHEDX2
 70
0
  3
Dashed (2x) ____  ____  ____  ____  ____  ___
 72
65
 73
2
 40
38.1000000000000014
 49
25.3999999999999986
 74
0
 49
-12.6999999999999993
 74
0
  0
LTYPE
  5
37
100
AcDbSymbolTableRecord
100
AcDbLinetypeTableRecord
  2
DASHDOT
 70
0
  3
Dash dot __ . __ . __ . __ . __ . __ . __ . __
 72
65
 73
4
 40
25.3999999999999986
 49
12.6999999999999993
 74
0
 49
-6.3499999999999996
 74
0
 49
0.0
 74
0
 49
-6.3499999999999996
 74
0
  0
LTYPE
  5
38
100
AcDbSymbolTableRecord
100
AcDbLinetypeTableRecord
  2
DASHDOT2
 70
0
  3
Dash dot (.5x) _._._._._._._._._._._._._._._.
 72
65
 73
4
 40
12.6999999999999993
 49
6.3499999999999996
 74
0
 49
-3.1749999999999998
 74
0
 49
0.0
 74
0
 49
-3.1749999999999998
 74
0
  0
LTYPE
  5
39
100
AcDbSymbolTableRecord
100
AcDbLinetypeTableRecord
  2
DASHDOTX2
 70
0
  3
Dash dot (2x) ____  .  ____  .  ____  .  ___
 72
65
 73
4
 40
50.7999999999999972
 49
25.3999999999999986
 74
0
 49
-12.6999999999999993
 74
0
 49
0.0
 74
0
 49
-12.6999999999999993
 74
0
  0
LTYPE
  5
3A
100
AcDbSymbolTableRecord
100
AcDbLinetypeTableRecord
  2
DIVIDE
 70
0
  3
Divide ____ . . ____ . . ____ . . ____ . . ____
 72
65
 73
6
 40
31.75
 49
12.6999999999999993
 74
0
 49
-6.3499999999999996
 74
0
 49
0.0
 74
0
 49
-6.3499999999999996
 74
0
 49
0.0
 74
0
 49
-6.3499999999999996
 74
0
  0
LTYPE
  5
3B
100
AcDbSymbolTableRecord
100
AcDbLinetypeTableRecord
  2
DIVIDE2
 70
0
  3
Divide (.5x) __..__..__..__..__..__..__..__.._
 72
65
 73
6
 40
15.875
 49
6.3499999999999996
 74
0
 49
-3.1749999999999998
 74
0
 49
0.0
 74
0
 49
-3.1749999999999998
 74
0
 49
0.0
 74
0
 49
-3.1749999999999998
 74
0
  0
LTYPE
  5
3C
100
AcDbSymbolTableRecord
100
AcDbLinetypeTableRecord
  2
DIVIDEX2
 70
0
  3
Divide (2x) ________  .  .  ________  .  .  _
 72
65
 73
6
 40
63.5
 49
25.3999999999999986
 74
0
 49
-12.6999999999999993
 74
0
 49
0.0
 74
0
 49
-12.6999999999999993
 74
0
 49
0.0
 74
0
 49
-12.6999999999999993
 74
0
  0
LTYPE
  5
3D
100
AcDbSymbolTableRecord
100
AcDbLinetypeTableRecord
  2
CENTER
 70
0
  3
Center ____ _ ____ _ ____ _ ____ _ ____ _ ____
 72
65
 73
4
 40
50.7999999999999972
 49
31.75
 74
0
 49
-6.3499999999999996
 74
0
 49
6.3499999999999996
 74
0
 49
-6.3499999999999996
 74
0
  0
LTYPE
  5
3E
100
AcDbSymbolTableRecord
100
AcDbLinetypeTableRecord
  2
CENTER2
 70
0
  3
Center (.5x) ___ _ ___ _ ___ _ ___ _ ___ _ ___
 72
65
 73
4
 40
28.5749999999999993
 49
19.0500000000000007
 74
0
 49
-3.1749999999999998
 74
0
 49
3.1749999999999998
 74
0
 49
-3.1749999999999998
 74
0
  0
LTYPE
  5
3F
100
AcDbSymbolTableRecord
100
AcDbLinetypeTableRecord
  2
CENTERX2
 70
0
  3
Center (2x) ________  __  ________  __  _____
 72
65
 73
4
 40
101.5999999999999943
 49
63.5
 74
0
 49
-12.6999999999999993
 74
0
 49
12.6999999999999993
 74
0
 49
-12.6999999999999993
 74
0
  0
LTYPE
  5
40
100
AcDbSymbolTableRecord
100
AcDbLinetypeTableRecord
  2
BORDER
 70
0
  3
Border __ __ . __ __ . __ __ . __ __ . __ __ .
 72
65
 73
6
 40
44.4500000000000028
 49
12.6999999999999993
 74
0
 49
-6.3499999999999996
 74
0
 49
12.6999999999999993
 74
0
 49
-6.3499999999999996
 74
0
 49
0.0
 74
0
 49
-6.3499999999999996
 74
0
  0
LTYPE
  5
41
100
AcDbSymbolTableRecord
100
AcDbLinetypeTableRecord
  2
BORDER2
 70
0
  3
Border (.5x) __.__.__.__.__.__.__.__.__.__.__.
 72
65
 73
6
 40
22.2250000000000014
 49
6.3499999999999996
 74
0
 49
-3.1749999999999998
 74
0
 49
6.3499999999999996
 74
0
 49
-3.1749999999999998
 74
0
 49
0.0
 74
0
 49
-3.1749999999999998
 74
0
  0
LTYPE
  5
42
100
AcDbSymbolTableRecord
100
AcDbLinetypeTableRecord
  2
BORDERX2
 70
0
  3
Border (2x) ____  ____  .  ____  ____  .  ___
 72
65
 73
6
 40
88.9000000000000057
 49
25.3999999999999986
 74
0
 49
-12.6999999999999993
 74
0
 49
25.3999999999999986
 74
0
 49
-12.6999999999999993
 74
0
 49
0.0
 74
0
 49
-12.6999999999999993
 74
0
  0
ENDTAB
  0
TABLE
  2
LAYER
  5
2
100
AcDbSymbolTable
 70
5
  0
LAYER
  5
10
100
AcDbSymbolTableRecord
100
AcDbLayerTableRecord
  2
0
 70
0
 62
7
  6
CONTINUOUS
370
0
390
F
  0
LAYER
  5
43
100
AcDbSymbolTableRecord
100
AcDbLayerTableRecord
  2
contour
 70
0
 62
7
  6
CONTINUOUS
370
25
390
F
  0
LAYER
  5
44
100
AcDbSymbolTableRecord
100
AcDbLayerTableRecord
  2
bend
 70
0
 62
7
  6
DASHED2
370
15
390
F
  0
LAYER
  5
45
100
AcDbSymbolTableRecord
100
AcDbLayerTableRecord
  2
cons
 70
1
 62
7
  6
CONTINUOUS
370
0
390
F
  0
LAYER
  5
46
100
AcDbSymbolTableRecord
100
AcDbLayerTableRecord
  2
helper
 70
0
 62
7
  6
CONTINUOUS
370
15
390
F
  0
ENDTAB
  0
TABLE
  2
STYLE
  5
3
100
AcDbSymbolTable
 70
1
  0
STYLE
  5
11
100
AcDbSymbolTableRecord
100
AcDbTextStyleTableRecord
  2
Standard
 70
0
 40
0.0
 41
0.75
 50
0.0
 71
0
 42
2.5
  3
txt
  4

  0
ENDTAB
  0
TABLE
  2
VIEW
  5
6
100
AcDbSymbolTable
 70
0
  0
ENDTAB
  0
TABLE
  2
UCS
  5
7
100
AcDbSymbolTable
 70
0
  0
ENDTAB
  0
TABLE
  2
APPID
  5
9
100
AcDbSymbolTable
 70
1
  0
APPID
  5
12
100
AcDbSymbolTableRecord
100
AcDbRegAppTableRecord
  2
ACAD
 70
0
  0
ENDTAB
  0
TABLE
  2
DIMSTYLE
  5
A
100
AcDbSymbolTable
 70
1
100
AcDbDimStyleTable
 71
0
  0
DIMSTYLE
105
27
100
AcDbSymbolTableRecord
100
AcDbDimStyleTableRecord
  2
Standard
 41
2.5
 42
0.625
 43
3.75
 44
1.25
 70
0
 73
0
 74
0
 77
1
 78
8
140
2.5
141
2.5
143
0.03937007874016
147
0.625
171
3
172
1
271
2
272
2
274
3
278
44
283
0
284
8
340
11
  0
ENDTAB
  0
TABLE
  2
BLOCK_RECORD
  5
1
100
AcDbSymbolTable
 70
1
  0
BLOCK_RECORD
  5
1F
100
AcDbSymbolTableRecord
100
AcDbBlockTableRecord
  2
*Model_Space
340
22
  0
BLOCK_RECORD
  5
1B
100
AcDbSymbolTableRecord
100
AcDbBlockTableRecord
  2
*Paper_Space
340
1E
  0
BLOCK_RECORD
  5
23
100
AcDbSymbolTableRecord
100
AcDbBlockTableRecord
  2
*Paper_Space0
340
26
  0
ENDTAB
  0
ENDSEC
  0
SECTION
  2
BLOCKS
  0
BLOCK
  5
20
100
AcDbEntity
  8
0
100
AcDbBlockBegin
  2
*Model_Space
 70
0
 10
0.0
 20
0.0
 30
0.0
  3
*Model_Space
  1

  0
ENDBLK
  5
21
100
AcDbEntity
  8
0
100
AcDbBlockEnd
  0
BLOCK
  5
1C
100
AcDbEntity
 67
1
  8
0
100
AcDbBlockBegin
  2
*Paper_Space
 70
0
 10
0.0
 20
0.0
 30
0.0
  3
*Paper_Space
  1

  0
ENDBLK
  5
1D
100
AcDbEntity
 67
1
  8
0
100
AcDbBlockEnd
  0
BLOCK
  5
24
100
AcDbEntity
  8
0
100
AcDbBlockBegin
  2
*Paper_Space0
 70
0
 10
0.0
 20
0.0
 30
0.0
  3
*Paper_Space0
  1

  0
ENDBLK
  5
25
100
AcDbEntity
  8
0
100
AcDbBlockEnd
  0
ENDSEC
  0
SECTION
  2
ENTITIES
  0
CIRCLE
  5
47
100
AcDbEntity
100
AcDbCircle
  8
contour
 62
256
370
-1
  6
ByLayer
 10
-89.6599999999999966
 20
406.2300000000000182
 30
0.0
 40
2.6000000000000001
  0
CIRCLE
  5
48
100
AcDbEntity
100
AcDbCircle
  8
contour
 62
256
370
-1
  6
ByLayer
 10
-89.6599999999999966
 20
370.6999999999999886
 30
0.0
 40
2.6000000000000001
  0
CIRCLE
  5
49
100
AcDbEntity
100
AcDbCircle
  8
contour
 62
256
370
-1
  6
ByLayer
 10
-89.6599999999999966
 20
335.1399999999999864
 30
0.0
 40
2.6000000000000001
  0
CIRCLE
  5
4A
100
AcDbEntity
100
AcDbCircle
  8
contour
 62
256
370
-1
  6
ByLayer
 10
-127.3599999999999994
 20
445.0199999999999818
 30
0.0
 40
3.25
  0
CIRCLE
  5
4B
100
AcDbEntity
100
AcDbCircle
  8
contour
 62
256
370
-1
  6
ByLayer
 10
-111.0900000000000034
 20
445.0199999999999818
 30
0.0
 40
3.25
  0
MTEXT
  5
4C
100
AcDbEntity
100
AcDbMText
  8
contour
 62
256
370
-1
  6
ByLayer
 10
-133.2764916062179736
 20
438.1859150259079456
 30
0.0
 40
5.0
 41
100.0
 71
5
 72
2
  1
6.5
  7
normallatin1
 50
0.0
 73
1
 44
1.0
  0
MTEXT
  5
4D
100
AcDbEntity
100
AcDbMText
  8
contour
 62
256
370
-1
  6
ByLayer
 10
-104.1450180310883695
 20
438.4286773057006599
 30
0.0
 40
5.0
 41
100.0
 71
5
 72
2
  1
6.5
  7
normallatin1
 50
0.0
 73
1
 44
1.0
  0
MTEXT
  5
4E
100
AcDbEntity
100
AcDbMText
  8
contour
 62
256
370
-1
  6
ByLayer
 10
-96.8621496373059614
 20
412.6958756476695385
 30
0.0
 40
5.0
 41
100.0
 71
5
 72
2
  1
5.2
  7
normallatin1
 50
0.0
 73
1
 44
1.0
  0
MTEXT
  5
4F
100
AcDbEntity
100
AcDbMText
  8
contour
 62
256
370
-1
  6
ByLayer
 10
-96.6193873575132187
 20
376.5242959585502263
 30
0.0
 40
5.0
 41
100.0
 71
5
 72
2
  1
5.2
  7
normallatin1
 50
0.0
 73
1
 44
1.0
  0
MTEXT
  5
50
100
AcDbEntity
100
AcDbMText
  8
contour
 62
256
370
-1
  6
ByLayer
 10
-97.1049119170987183
 20
341.3237653886019984
 30
0.0
 40
5.0
 41
100.0
 71
5
 72
2
  1
5.2
  7
normallatin1
 50
0.0
 73
1
 44
1.0
  0
MTEXT
  5
51
100
AcDbEntity
100
AcDbMText
  8
contour
 62
256
370
-1
  6
ByLayer
 10
-140.8336248704702882
 20
351.4847701554502919
 30
0.0
 40
4.0
 41
100.0
 71
5
 72
2
  1
Bend\Pflaps\Paway\Pfrom\Pobserver
  7
normallatin1
 50
0.0
 73
0
 44
1.0
  0
MTEXT
  5
52
100
AcDbEntity
100
AcDbMText
  8
contour
 62
256
370
-1
  6
ByLayer
 10
-82.186190828401152
 20
307.1427958579898814
 30
0.0
 40
5.0
 41
100.0
 71
5
 72
2
  1
Bend
  7
Standard
 50
0.0
 73
1
 44
1.0
  0
MTEXT
  5
53
100
AcDbEntity
100
AcDbMText
  8
contour
 62
256
370
-1
  6
ByLayer
 10
-82.3935489766080593
 20
294.3858506944445708
 30
0.0
 40
5.0
 41
100.0
 71
5
 72
2
  1
Bend
  7
Standard
 50
0.0
 73
0
 44
1.0
  0
LINE
  5
54
100
AcDbEntity
100
AcDbLine
  8
helper
 62
256
370
-1
  6
ByLayer
 10
-89.660000000000025
 20
324.1200000000000045
 30
0.0
 11
-89.6599999999999966
 21
456.8600000000000136
 31
0.0
  0
LINE
  5
55
100
AcDbEntity
100
AcDbLine
  8
helper
 62
256
370
-1
  6
ByLayer
 10
-111.0900000000000318
 20
324.1200000000000045
 30
0.0
 11
-111.0900000000000034
 21
456.8600000000000136
 31
0.0
  0
LINE
  5
56
100
AcDbEntity
100
AcDbLine
  8
helper
 62
256
370
-1
  6
ByLayer
 10
-127.3600000000000279
 20
324.1200000000000045
 30
0.0
 11
-127.3599999999999994
 21
456.8600000000000136
 31
0.0
  0
MTEXT
  5
57
100
AcDbEntity
100
AcDbMText
  8
contour
 62
256
370
-1
  6
ByLayer
 10
-140.8336248704734714
 20
453.8769110881060556
 30
0.0
 40
3.0
 41
100.0
 71
5
 72
2
  1
Bend
  7
normallatin1
 50
0.0
 73
0
 44
1.0
  0
MTEXT
  5
58
100
AcDbEntity
100
AcDbMText
  8
contour
 62
256
370
-1
  6
ByLayer
 10
-61.3903668393812652
 20
454.4762694300750923
 30
0.0
 40
3.0
 41
100.0
 71
5
 72
2
  1
Bend
  7
normallatin1
 50
0.0
 73
0
 44
1.0
  0
MTEXT
  5
59
100
AcDbEntity
100
AcDbMText
  8
contour
 62
256
370
-1
  6
ByLayer
 10
-82.9208356176898178
 20
266.3620659722222968
 30
0.0
 40
5.0
 41
100.0
 71
5
 72
2
  1
Bend
  7
Standard
 50
0.0
 73
0
 44
1.0
  0
MTEXT
  5
5A
100
AcDbEntity
100
AcDbMText
  8
contour
 62
256
370
-1
  6
ByLayer
 10
-83.1091522752190599
 20
279.3559153417398875
 30
0.0
 40
5.0
 41
100.0
 71
5
 72
2
  1
Bend
  7
Standard
 50
0.0
 73
0
 44
1.0
  0
LINE
  5
5B
100
AcDbEntity
100
AcDbLine
  8
contour
 62
256
370
-1
  6
ByLayer
 10
-119.5
 20
306.6000000000000227
 30
0.0
 11
-119.5
 21
310.6000000000000227
 31
0.0
  0
LINE
  5
5C
100
AcDbEntity
100
AcDbLine
  8
contour
 62
256
370
-1
  6
ByLayer
 10
-119.5
 20
290.25
 30
0.0
 11
-119.5
 21
300.6000000000000227
 31
0.0
  0
LINE
  5
5D
100
AcDbEntity
100
AcDbLine
  8
contour
 62
256
370
-1
  6
ByLayer
 10
-112.5
 20
306.6000000000000227
 30
0.0
 11
-119.5
 21
306.6000000000000227
 31
0.0
  0
LINE
  5
5E
100
AcDbEntity
100
AcDbLine
  8
contour
 62
256
370
-1
  6
ByLayer
 10
-112.5
 20
300.6000000000000227
 30
0.0
 11
-119.5
 21
300.6000000000000227
 31
0.0
  0
LINE
  5
5F
100
AcDbEntity
100
AcDbLine
  8
contour
 62
256
370
-1
  6
ByLayer
 10
-112.5
 20
300.6000000000000227
 30
0.0
 11
-112.5
 21
306.6000000000000227
 31
0.0
  0
LINE
  5
60
100
AcDbEntity
100
AcDbLine
  8
contour
 62
256
370
-1
  6
ByLayer
 10
-119.4999999999999716
 20
262.2999999999999545
 30
0.0
 11
-119.4999999999999574
 21
282.6500000000000341
 31
0.0
  0
LINE
  5
61
100
AcDbEntity
100
AcDbLine
  8
contour
 62
256
370
-1
  6
ByLayer
 10
-119.4999999999999574
 20
282.6500000000000341
 30
0.0
 11
-115.7000000000000028
 21
286.4499999999999886
 31
0.0
  0
LINE
  5
62
100
AcDbEntity
100
AcDbLine
  8
contour
 62
256
370
-1
  6
ByLayer
 10
-119.5
 20
290.25
 30
0.0
 11
-115.7000000000000028
 21
286.4499999999999886
 31
0.0
  0
LINE
  5
63
100
AcDbEntity
100
AcDbLine
  8
contour
 62
256
370
-1
  6
ByLayer
 10
-119.4999999999999716
 20
262.2999999999999545
 30
0.0
 11
-115.699999999999946
 21
258.5
 31
0.0
  0
LINE
  5
64
100
AcDbEntity
100
AcDbLine
  8
contour
 62
256
370
-1
  6
ByLayer
 10
-119.5
 20
310.6000000000000227
 30
0.0
 11
-115.7000000000000455
 21
314.3999999999999773
 31
0.0
  0
ARC
  5
65
100
AcDbEntity
  8
cons
 62
256
370
-1
  6
ByLayer
100
AcDbCircle
 10
50.464108703163113
 20
464.7337018350739868
 30
0.0
 40
5.509542263395617
100
AcDbArc
 50
0.0
 51
45.0000000000002132
  0
ARC
  5
66
100
AcDbEntity
  8
cons
 62
256
370
-1
  6
ByLayer
100
AcDbCircle
 10
50.464108703163113
 20
464.7337018350739868
 30
0.0
 40
5.509542263395617
100
AcDbArc
 50
45.0000000000002132
 51
90.0000000000000284
  0
CIRCLE
  5
67
100
AcDbEntity
100
AcDbCircle
  8
cons
 62
256
370
-1
  6
ByLayer
 10
50.4641087031630988
 20
502.4817322965634503
 30
0.0
 40
1.0
  0
CIRCLE
  5
68
100
AcDbEntity
100
AcDbCircle
  8
cons
 62
256
370
-1
  6
ByLayer
 10
46.47229621172945
 20
494.7870685069225374
 30
0.0
 40
1.0
  0
CIRCLE
  5
69
100
AcDbEntity
100
AcDbCircle
  8
cons
 62
256
370
-1
  6
ByLayer
 10
43.0558014796778536
 20
486.8202635295028244
 30
0.0
 40
1.0
  0
CIRCLE
  5
6A
100
AcDbEntity
100
AcDbCircle
  8
cons
 62
256
370
-1
  6
ByLayer
 10
40.2330409466856835
 20
478.6242620180486824
 30
0.0
 40
1.0
  0
CIRCLE
  5
6B
100
AcDbEntity
100
AcDbCircle
  8
cons
 62
256
370
-1
  6
ByLayer
 10
55.9736509665587434
 20
429.3783509269526348
 30
0.0
 40
1.0
  0
CIRCLE
  5
6C
100
AcDbEntity
100
AcDbCircle
  8
cons
 62
256
370
-1
  6
ByLayer
 10
60.410514818529407
 20
429.3783509269526348
 30
0.0
 40
1.0
  0
CIRCLE
  5
6D
100
AcDbEntity
100
AcDbCircle
  8
cons
 62
256
370
-1
  6
ByLayer
 10
64.8473786705000634
 20
429.378350926952578
 30
0.0
 40
1.0
  0
CIRCLE
  5
6E
100
AcDbEntity
100
AcDbCircle
  8
cons
 62
256
370
-1
  6
ByLayer
 10
54.7974798501970355
 20
494.0585881746252994
 30
0.0
 40
1.0
  0
CIRCLE
  5
6F
100
AcDbEntity
100
AcDbCircle
  8
cons
 62
256
370
-1
  6
ByLayer
 10
58.4416662963685454
 20
485.3151696473884726
 30
0.0
 40
1.0
  0
CIRCLE
  5
70
100
AcDbEntity
100
AcDbCircle
  8
cons
 62
256
370
-1
  6
ByLayer
 10
63.5732456203817193
 20
467.0943246619791012
 30
0.0
 40
1.0
  0
CIRCLE
  5
71
100
AcDbEntity
100
AcDbCircle
  8
cons
 62
256
370
-1
  6
ByLayer
 10
61.3732114056758888
 20
476.3077557194631027
 30
0.0
 40
1.0
  0
CIRCLE
  5
72
100
AcDbEntity
100
AcDbCircle
  8
cons
 62
256
370
-1
  6
ByLayer
 10
65.0276079192189513
 20
457.7341808222396935
 30
0.0
 40
1.0
  0
CIRCLE
  5
73
100
AcDbEntity
100
AcDbCircle
  8
cons
 62
256
370
-1
  6
ByLayer
 10
65.7269369680290367
 20
448.2875728977845711
 30
0.0
 40
1.0
  0
CIRCLE
  5
74
100
AcDbEntity
100
AcDbCircle
  8
cons
 62
256
370
-1
  6
ByLayer
 10
65.6667313761214757
 20
438.8153061319259791
 30
0.0
 40
1.0
  0
LINE
  5
75
100
AcDbEntity
100
AcDbLine
  8
cons
 62
256
370
-1
  6
ByLayer
 10
55.9736509665587434
 20
455.8948641080436346
 30
0.0
 11
55.9736509665587434
 21
460.3142829715588391
 31
0.0
  0
LINE
  5
76
100
AcDbEntity
100
AcDbLine
  8
cons
 62
256
370
-1
  6
ByLayer
 10
55.9736509665587434
 20
460.3142829715588391
 30
0.0
 11
55.9736509665587434
 21
464.7337018350739868
 31
0.0
  0
LINE
  5
77
100
AcDbEntity
100
AcDbLine
  8
cons
 62
256
370
-1
  6
ByLayer
 10
55.9736509665587434
 20
447.0560263810132824
 30
0.0
 11
55.9736509665587434
 21
451.4754452445284301
 31
0.0
  0
LINE
  5
78
100
AcDbEntity
100
AcDbLine
  8
cons
 62
256
370
-1
  6
ByLayer
 10
55.9736509665587434
 20
451.4754452445284301
 30
0.0
 11
55.9736509665587434
 21
455.8948641080436346
 31
0.0
  0
LINE
  5
79
100
AcDbEntity
100
AcDbLine
  8
cons
 62
256
370
-1
  6
ByLayer
 10
55.9736509665587434
 20
438.217188653982987
 30
0.0
 11
55.9736509665587434
 21
442.6366075174981347
 31
0.0
  0
LINE
  5
7A
100
AcDbEntity
100
AcDbLine
  8
cons
 62
256
370
-1
  6
ByLayer
 10
55.9736509665587434
 20
442.6366075174981347
 30
0.0
 11
55.9736509665587434
 21
447.0560263810132824
 31
0.0
  0
LINE
  5
7B
100
AcDbEntity
100
AcDbLine
  8
cons
 62
256
370
-1
  6
ByLayer
 10
55.9736509665587434
 20
433.7977697904678394
 30
0.0
 11
55.9736509665587434
 21
438.217188653982987
 31
0.0
  0
ARC
  5
7C
100
AcDbEntity
  8
cons
 62
256
370
-1
  6
ByLayer
100
AcDbCircle
 10
-52.2731821837173243
 20
444.3012552493154317
 30
0.0
 40
118.0674334785881427
100
AcDbArc
 50
355.0378043091380391
 51
357.336819029493256
  0
ARC
  5
7D
100
AcDbEntity
  8
cons
 62
256
370
-1
  6
ByLayer
100
AcDbCircle
 10
-52.2731821837173243
 20
444.3012552493154317
 30
0.0
 40
118.0674334785881427
100
AcDbArc
 50
357.336819029493256
 51
359.6358337498487003
  0
ARC
  5
7E
100
AcDbEntity
  8
cons
 62
256
370
-1
  6
ByLayer
100
AcDbCircle
 10
-52.2731821837173243
 20
444.3012552493154317
 30
0.0
 40
118.0674334785881427
100
AcDbArc
 50
359.6358337498487003
 51
1.9348484702037299
  0
ARC
  5
7F
100
AcDbEntity
  8
cons
 62
256
370
-1
  6
ByLayer
100
AcDbCircle
 10
-52.2731821837173243
 20
444.3012552493154317
 30
0.0
 40
118.0674334785881427
100
AcDbArc
 50
1.9348484702037299
 51
4.2338631905590178
  0
ARC
  5
80
100
AcDbEntity
  8
cons
 62
256
370
-1
  6
ByLayer
100
AcDbCircle
 10
-52.2731821837173243
 20
444.3012552493154317
 30
0.0
 40
118.0674334785881427
100
AcDbArc
 50
4.2338631905590178
 51
6.532877910914265
  0
ARC
  5
81
100
AcDbEntity
  8
cons
 62
256
370
-1
  6
ByLayer
100
AcDbCircle
 10
-52.2731821837173243
 20
444.3012552493154317
 30
0.0
 40
118.0674334785881427
100
AcDbArc
 50
6.532877910914265
 51
8.8318926312695769
  0
ARC
  5
82
100
AcDbEntity
  8
cons
 62
256
370
-1
  6
ByLayer
100
AcDbCircle
 10
-52.2731821837173243
 20
444.3012552493154317
 30
0.0
 40
118.0674334785881427
100
AcDbArc
 50
8.8318926312695769
 51
11.1309073516248684
  0
ARC
  5
83
100
AcDbEntity
  8
cons
 62
256
370
-1
  6
ByLayer
100
AcDbCircle
 10
-52.2731821837173243
 20
444.3012552493154317
 30
0.0
 40
118.0674334785881427
100
AcDbArc
 50
11.1309073516248684
 51
13.4299220719800996
  0
ARC
  5
84
100
AcDbEntity
  8
cons
 62
256
370
-1
  6
ByLayer
100
AcDbCircle
 10
-52.2731821837173243
 20
444.3012552493154317
 30
0.0
 40
118.0674334785881427
100
AcDbArc
 50
13.4299220719800996
 51
15.7289367923353733
  0
ARC
  5
85
100
AcDbEntity
  8
cons
 62
256
370
-1
  6
ByLayer
100
AcDbCircle
 10
-52.2731821837173243
 20
444.3012552493154317
 30
0.0
 40
118.0674334785881427
100
AcDbArc
 50
15.7289367923353733
 51
18.0279515126906524
  0
ARC
  5
86
100
AcDbEntity
  8
cons
 62
256
370
-1
  6
ByLayer
100
AcDbCircle
 10
-52.2731821837173243
 20
444.3012552493154317
 30
0.0
 40
118.0674334785881427
100
AcDbArc
 50
18.0279515126906524
 51
20.3269662330459084
  0
ARC
  5
87
100
AcDbEntity
  8
cons
 62
256
370
-1
  6
ByLayer
100
AcDbCircle
 10
-52.2731821837173243
 20
444.3012552493154317
 30
0.0
 40
118.0674334785881427
100
AcDbArc
 50
20.3269662330459084
 51
22.6259809534011858
  0
ARC
  5
88
100
AcDbEntity
  8
cons
 62
256
370
-1
  6
ByLayer
100
AcDbCircle
 10
-52.2731821837173243
 20
444.3012552493154317
 30
0.0
 40
118.0674334785881427
100
AcDbArc
 50
22.6259809534011858
 51
24.924995673756456
  0
ARC
  5
89
100
AcDbEntity
  8
cons
 62
256
370
-1
  6
ByLayer
100
AcDbCircle
 10
-52.2731821837173243
 20
444.3012552493154317
 30
0.0
 40
118.0674334785881427
100
AcDbArc
 50
24.924995673756456
 51
27.2240103941117262
  0
ARC
  5
8A
100
AcDbEntity
  8
cons
 62
256
370
-1
  6
ByLayer
100
AcDbCircle
 10
153.2013995900435361
 20
444.3012552493154317
 30
0.0
 40
118.0674334785881427
100
AcDbArc
 50
152.5807663468995941
 51
154.6845578082661348
  0
ARC
  5
8B
100
AcDbEntity
  8
cons
 62
256
370
-1
  6
ByLayer
100
AcDbCircle
 10
153.2013995900435361
 20
444.3012552493154317
 30
0.0
 40
118.0674334785881427
100
AcDbArc
 50
154.6845578082661348
 51
156.7883492696327039
  0
ARC
  5
8C
100
AcDbEntity
  8
cons
 62
256
370
-1
  6
ByLayer
100
AcDbCircle
 10
153.2013995900435361
 20
444.3012552493154317
 30
0.0
 40
118.0674334785881427
100
AcDbArc
 50
156.7883492696327039
 51
158.8921407309992446
  0
ARC
  5
8D
100
AcDbEntity
  8
cons
 62
256
370
-1
  6
ByLayer
100
AcDbCircle
 10
153.2013995900435361
 20
444.3012552493154317
 30
0.0
 40
118.0674334785881427
100
AcDbArc
 50
158.8921407309992446
 51
160.9959321923658138
  0
ARC
  5
8E
100
AcDbEntity
  8
cons
 62
256
370
-1
  6
ByLayer
100
AcDbCircle
 10
153.2013995900435361
 20
444.3012552493154317
 30
0.0
 40
118.0674334785881427
100
AcDbArc
 50
160.9959321923658138
 51
163.0997236537323545
  0
ARC
  5
8F
100
AcDbEntity
  8
cons
 62
256
370
-1
  6
ByLayer
100
AcDbCircle
 10
153.2013995900435361
 20
444.3012552493154317
 30
0.0
 40
118.0674334785881427
100
AcDbArc
 50
163.0997236537323545
 51
165.203515115098952
  0
CIRCLE
  5
90
100
AcDbEntity
100
AcDbCircle
  8
cons
 62
256
370
-1
  6
ByLayer
 10
48.3975611855061771
 20
498.6710474495478707
 30
0.0
 40
1.0
  0
CIRCLE
  5
91
100
AcDbEntity
100
AcDbCircle
  8
cons
 62
256
370
-1
  6
ByLayer
 10
44.6909091670524106
 20
490.83503133059628
 30
0.0
 40
1.0
  0
CIRCLE
  5
92
100
AcDbEntity
100
AcDbCircle
  8
cons
 62
256
370
-1
  6
ByLayer
 10
41.5691773835070251
 20
482.7481772776299067
 30
0.0
 40
1.0
  0
CIRCLE
  5
93
100
AcDbEntity
100
AcDbCircle
  8
cons
 62
256
370
-1
  6
ByLayer
 10
39.0491933699869804
 20
474.4540770627795041
 30
0.0
 40
1.0
  0
CIRCLE
  5
94
100
AcDbEntity
100
AcDbCircle
  8
cons
 62
256
370
-1
  6
ByLayer
 10
65.3517330716207425
 20
434.0886082175525758
 30
0.0
 40
1.0
  0
CIRCLE
  5
95
100
AcDbEntity
100
AcDbCircle
  8
cons
 62
256
370
-1
  6
ByLayer
 10
65.7918664903372132
 20
443.5508354908018305
 30
0.0
 40
1.0
  0
CIRCLE
  5
96
100
AcDbEntity
100
AcDbCircle
  8
cons
 62
256
370
-1
  6
ByLayer
 10
65.4720473346784217
 20
453.0178930117295408
 30
0.0
 40
1.0
  0
CIRCLE
  5
97
100
AcDbEntity
100
AcDbCircle
  8
cons
 62
256
370
-1
  6
ByLayer
 10
64.394334193476567
 20
462.4288439085395908
 30
0.0
 40
1.0
  0
CIRCLE
  5
98
100
AcDbEntity
100
AcDbCircle
  8
cons
 62
256
370
-1
  6
ByLayer
 10
62.5656640128075168
 20
471.723112452498242
 30
0.0
 40
1.0
  0
CIRCLE
  5
99
100
AcDbEntity
100
AcDbCircle
  8
cons
 62
256
370
-1
  6
ByLayer
 10
59.9978074447574556
 20
480.8408739674102321
 30
0.0
 40
1.0
  0
CIRCLE
  5
9A
100
AcDbEntity
100
AcDbCircle
  8
cons
 62
256
370
-1
  6
ByLayer
 10
56.7072930829401116
 20
489.7234399047709985
 30
0.0
 40
1.0
  0
CIRCLE
  5
9B
100
AcDbEntity
100
AcDbCircle
  8
cons
 62
256
370
-1
  6
ByLayer
 10
52.7153010724396012
 20
498.3136356059752643
 30
0.0
 40
1.0
  0
CIRCLE
  5
9C
100
AcDbEntity
100
AcDbCircle
  8
cons
 62
256
370
-1
  6
ByLayer
 10
38.0192305586731081
 20
470.2432440984696882
 30
0.0
 40
1.0
  0
CIRCLE
  5
9D
100
AcDbEntity
100
AcDbCircle
  8
cons
 62
256
370
-1
  6
ByLayer
 10
42.3492305586731064
 20
470.2432440984696882
 30
0.0
 40
1.0
  0
CIRCLE
  5
9E
100
AcDbEntity
100
AcDbCircle
  8
cons
 62
256
370
-1
  6
ByLayer
 10
46.6792305586731047
 20
470.2432440984696314
 30
0.0
 40
1.0
  0
CIRCLE
  5
9F
100
AcDbEntity
100
AcDbCircle
  8
cons
 62
256
370
-1
  6
ByLayer
 10
51.0091462186299864
 20
470.2162185982837741
 30
0.0
 40
1.0
  0
CIRCLE
  5
A0
100
AcDbEntity
100
AcDbCircle
  8
cons
 62
256
370
-1
  6
ByLayer
 10
54.8029786646471422
 20
468.1291787396448285
 30
0.0
 40
1.0
  0
CIRCLE
  5
A1
100
AcDbEntity
100
AcDbCircle
  8
cons
 62
256
370
-1
  6
ByLayer
 10
55.9736509665587434
 20
463.9604347607541968
 30
0.0
 40
1.0
  0
CIRCLE
  5
A2
100
AcDbEntity
100
AcDbCircle
  8
cons
 62
256
370
-1
  6
ByLayer
 10
55.9736509665587434
 20
459.6304347607542127
 30
0.0
 40
1.0
  0
CIRCLE
  5
A3
100
AcDbEntity
100
AcDbCircle
  8
cons
 62
256
370
-1
  6
ByLayer
 10
55.9736509665587434
 20
455.3004347607542286
 30
0.0
 40
1.0
  0
CIRCLE
  5
A4
100
AcDbEntity
100
AcDbCircle
  8
cons
 62
256
370
-1
  6
ByLayer
 10
55.9736513387884358
 20
450.9704347607542445
 30
0.0
 40
1.0
  0
CIRCLE
  5
A5
100
AcDbEntity
100
AcDbCircle
  8
cons
 62
256
370
-1
  6
ByLayer
 10
55.9736509665587434
 20
446.6404347607542604
 30
0.0
 40
1.0
  0
CIRCLE
  5
A6
100
AcDbEntity
100
AcDbCircle
  8
cons
 62
256
370
-1
  6
ByLayer
 10
55.9736513387884358
 20
442.3104347607542763
 30
0.0
 40
1.0
  0
CIRCLE
  5
A7
100
AcDbEntity
100
AcDbCircle
  8
cons
 62
256
370
-1
  6
ByLayer
 10
55.9736509665587434
 20
437.9804347607542923
 30
0.0
 40
1.0
  0
CIRCLE
  5
A8
100
AcDbEntity
100
AcDbCircle
  8
cons
 62
256
370
-1
  6
ByLayer
 10
55.9736509665587434
 20
433.6504347607543082
 30
0.0
 40
1.0
  0
ARC
  5
A9
100
AcDbEntity
  8
cons
 62
256
370
-1
  6
ByLayer
100
AcDbCircle
 10
-52.2731821837173243
 20
444.3012552493154317
 30
0.0
 40
118.0674334785881427
100
AcDbArc
 50
27.2240103941117262
 51
30.0083066953774598
  0
ARC
  5
AA
100
AcDbEntity
  8
cons
 62
256
370
-1
  6
ByLayer
100
AcDbCircle
 10
153.2013995900435361
 20
444.3012552493154317
 30
0.0
 40
118.0674334785881427
100
AcDbArc
 50
149.9916933046219185
 51
152.5807663468995941
  0
LINE
  5
AB
100
AcDbEntity
100
AcDbLine
  8
cons
 62
256
370
-1
  6
ByLayer
 10
47.5099003351198306
 20
499.1315452396526666
 30
0.0
 11
49.2852220358925379
 21
498.2105496594431315
 31
0.0
  0
LINE
  5
AC
100
AcDbEntity
100
AcDbLine
  8
cons
 62
256
370
-1
  6
ByLayer
 10
45.5683288751508115
 20
495.2146700204826857
 30
0.0
 11
47.3762635483080814
 21
494.3594669933623891
 31
0.0
  0
LINE
  5
AD
100
AcDbEntity
100
AcDbLine
  8
cons
 62
256
370
-1
  6
ByLayer
 10
43.7718539523672376
 20
491.2291601323349823
 30
0.0
 11
45.6099643817375906
 21
490.4409025288575776
 31
0.0
  0
LINE
  5
AE
100
AcDbEntity
100
AcDbLine
  8
cons
 62
256
370
-1
  6
ByLayer
 10
42.1228973344349598
 20
487.1803883075848489
 30
0.0
 11
43.9887056249207475
 21
486.4601387514208568
 31
0.0
  0
LINE
  5
AF
100
AcDbEntity
100
AcDbLine
  8
cons
 62
256
370
-1
  6
ByLayer
 10
40.6236819245345799
 20
483.07381255990515
 30
0.0
 11
42.5146728424794702
 21
482.4225419953546634
 31
0.0
  0
LINE
  5
B0
100
AcDbEntity
100
AcDbLine
  8
cons
 62
256
370
-1
  6
ByLayer
 10
39.2762287647401394
 20
478.9149688265011378
 30
0.0
 11
41.1898531286312206
 21
478.3335552095962271
 31
0.0
  0
LINE
  5
B1
100
AcDbEntity
100
AcDbLine
  8
cons
 62
256
370
-1
  6
ByLayer
 10
38.0823543115199428
 20
474.7094635052986291
 30
0.0
 11
40.016032428454011
 21
474.1986906202603222
 31
0.0
  0
LINE
  5
B2
100
AcDbEntity
100
AcDbLine
  8
cons
 62
256
370
-1
  6
ByLayer
 10
37.0192305586731081
 20
470.2432440984696882
 30
0.0
 11
50.464108703163113
 21
470.2432440984696314
 31
0.0
  0
ARC
  5
B3
100
AcDbEntity
  8
cons
 62
256
370
-1
  6
ByLayer
100
AcDbCircle
 10
153.2013995900435361
 20
444.3012552493154317
 30
0.0
 40
118.0674334785881427
100
AcDbArc
 50
165.203515115098952
 51
167.7925881573760023
  0
LINE
  5
B4
100
AcDbEntity
100
AcDbLine
  8
cons
 62
256
370
-1
  6
ByLayer
 10
53.6045258159858093
 20
498.771106212096754
 30
0.0
 11
51.826076328893393
 21
497.8561649998537746
 31
0.0
  0
LINE
  5
B5
100
AcDbEntity
100
AcDbLine
  8
cons
 62
256
370
-1
  6
ByLayer
 10
55.7043400984409516
 20
494.4800196520388909
 30
0.0
 11
53.8906196019531194
 21
493.637156697211708
 31
0.0
  0
LINE
  5
B6
100
AcDbEntity
100
AcDbLine
  8
cons
 62
256
370
-1
  6
ByLayer
 10
57.6303289452079355
 20
490.1081538205155539
 30
0.0
 11
55.7842572206722878
 21
489.3387259890264431
 31
0.0
  0
LINE
  5
B7
100
AcDbEntity
100
AcDbLine
  8
cons
 62
256
370
-1
  6
ByLayer
 10
59.3793918420006008
 20
485.6625466775287236
 30
0.0
 11
57.5039407507364899
 21
484.9677926172482216
 31
0.0
  0
LINE
  5
B8
100
AcDbEntity
100
AcDbLine
  8
cons
 62
256
370
-1
  6
ByLayer
 10
60.9487130952036935
 20
481.1503548940428914
 30
0.0
 11
59.0469017943112178
 21
480.5313930407775729
 31
0.0
  0
LINE
  5
B9
100
AcDbEntity
100
AcDbLine
  8
cons
 62
256
370
-1
  6
ByLayer
 10
62.3357663646604294
 20
476.5788423309625728
 30
0.0
 11
60.4106564466913341
 21
476.0366691079636325
 31
0.0
  0
LINE
  5
BA
100
AcDbEntity
100
AcDbLine
  8
cons
 62
256
370
-1
  6
ByLayer
 10
63.5383187306501895
 20
471.9553683455524151
 30
0.0
 11
61.593009294964844
 21
471.4908565594440688
 31
0.0
  0
LINE
  5
BB
100
AcDbEntity
100
AcDbLine
  8
cons
 62
256
370
-1
  6
ByLayer
 10
64.554434288509313
 20
467.2873759441245625
 30
0.0
 11
62.5920569522541257
 21
466.9012733798336399
 31
0.0
  0
LINE
  5
BC
100
AcDbEntity
100
AcDbLine
  8
cons
 62
256
370
-1
  6
ByLayer
 10
65.3824772651081787
 20
462.5823798000647571
 30
0.0
 11
63.4061911218449481
 21
462.2753080170144244
 31
0.0
  0
LINE
  5
BD
100
AcDbEntity
100
AcDbLine
  8
cons
 62
256
370
-1
  6
ByLayer
 10
66.0211146521675403
 20
457.8479541564873898
 30
0.0
 11
64.0341011862703624
 21
457.6204074879919972
 31
0.0
  0
LINE
  5
BE
100
AcDbEntity
100
AcDbLine
  8
cons
 62
256
370
-1
  6
ByLayer
 10
66.4693183521749518
 20
453.0917206329930877
 30
0.0
 11
64.4747763171818917
 21
452.9440653904659939
 31
0.0
  0
LINE
  5
BF
100
AcDbEntity
100
AcDbLine
  8
cons
 62
256
370
-1
  6
ByLayer
 10
66.7263668334469742
 20
448.3213359561574407
 30
0.0
 11
64.7275071026110993
 21
448.2538098394117014
 31
0.0
  0
LINE
  5
C0
100
AcDbEntity
100
AcDbLine
  8
cons
 62
256
370
-1
  6
ByLayer
 10
66.7918462916722433
 20
443.5444796335056594
 30
0.0
 11
64.7918866890021974
 21
443.5571913480980015
 31
0.0
  0
LINE
  5
C1
100
AcDbEntity
100
AcDbLine
  8
cons
 62
256
370
-1
  6
ByLayer
 10
66.6656513160660325
 20
438.7688415908094157
 30
0.0
 11
64.6678114361769332
 21
438.8617706730425425
 31
0.0
  0
LINE
  5
C2
100
AcDbEntity
100
AcDbLine
  8
cons
 62
256
370
-1
  6
ByLayer
 10
66.3479850590637454
 20
434.0021097926197058
 30
0.0
 11
64.3554810841777396
 21
434.1751066424854457
 31
0.0
  0
LINE
  5
C3
100
AcDbEntity
100
AcDbLine
  8
cons
 62
256
370
-1
  6
ByLayer
 10
60.410514818529407
 20
429.3783509269526348
 30
0.0
 11
65.8473786705000776
 21
429.3783509269526348
 31
0.0
  0
ARC
  5
C4
100
AcDbEntity
  8
cons
 62
256
370
-1
  6
ByLayer
100
AcDbCircle
 10
-52.2731821837173243
 20
444.3012552493154317
 30
0.0
 40
118.0674334785881427
100
AcDbArc
 50
352.2535080078721421
 51
355.0378043091380391
  0
LINE
  5
C5
100
AcDbEntity
100
AcDbLine
  8
cons
 62
256
370
-1
  6
ByLayer
 10
60.410514818529407
 20
428.3783509269526348
 30
0.0
 11
60.410514818529407
 21
430.3783509269526348
 31
0.0
  0
LINE
  5
C6
100
AcDbEntity
100
AcDbLine
  8
cons
 62
256
370
-1
  6
ByLayer
 10
55.9736509665587434
 20
428.3783509269526348
 30
0.0
 11
55.9736509665587434
 21
433.7977697904678394
 31
0.0
  0
LINE
  5
C7
100
AcDbEntity
100
AcDbLine
  8
cons
 62
256
370
-1
  6
ByLayer
 10
54.9736509665587434
 20
429.3783509269526348
 30
0.0
 11
60.410514818529407
 21
429.3783509269526348
 31
0.0
  0
LINE
  5
C8
100
AcDbEntity
100
AcDbLine
  8
cons
 62
256
370
-1
  6
ByLayer
 10
54.9736509665587434
 20
437.9804347607542923
 30
0.0
 11
56.9736509665587434
 21
437.9804347607542923
 31
0.0
  0
LINE
  5
C9
100
AcDbEntity
100
AcDbLine
  8
cons
 62
256
370
-1
  6
ByLayer
 10
54.9736509665587434
 20
433.6504347607543082
 30
0.0
 11
56.9736509665587434
 21
433.6504347607543082
 31
0.0
  0
LINE
  5
CA
100
AcDbEntity
100
AcDbLine
  8
cons
 62
256
370
-1
  6
ByLayer
 10
54.9736513387884358
 20
442.3104347607542763
 30
0.0
 11
56.9736513387884358
 21
442.3104347607542763
 31
0.0
  0
LINE
  5
CB
100
AcDbEntity
100
AcDbLine
  8
cons
 62
256
370
-1
  6
ByLayer
 10
54.9736509665587434
 20
446.6404347607542604
 30
0.0
 11
56.9736509665587434
 21
446.6404347607542604
 31
0.0
  0
LINE
  5
CC
100
AcDbEntity
100
AcDbLine
  8
cons
 62
256
370
-1
  6
ByLayer
 10
54.9736513387884358
 20
450.9704347607542445
 30
0.0
 11
56.9736513387884358
 21
450.9704347607542445
 31
0.0
  0
LINE
  5
CD
100
AcDbEntity
100
AcDbLine
  8
cons
 62
256
370
-1
  6
ByLayer
 10
54.9736509665587434
 20
455.3004347607542286
 30
0.0
 11
56.9736509665587434
 21
455.3004347607542286
 31
0.0
  0
LINE
  5
CE
100
AcDbEntity
100
AcDbLine
  8
cons
 62
256
370
-1
  6
ByLayer
 10
54.9736509665587434
 20
459.6304347607542127
 30
0.0
 11
56.9736509665587434
 21
459.6304347607542127
 31
0.0
  0
LINE
  5
CF
100
AcDbEntity
100
AcDbLine
  8
cons
 62
256
370
-1
  6
ByLayer
 10
54.9736509665587434
 20
463.9604347607541968
 30
0.0
 11
56.9736509665587434
 21
463.9604347607541968
 31
0.0
  0
LINE
  5
D0
100
AcDbEntity
100
AcDbLine
  8
cons
 62
256
370
-1
  6
ByLayer
 10
42.3492305586731064
 20
469.2432440984696882
 30
0.0
 11
42.3492305586731064
 21
471.2432440984696882
 31
0.0
  0
LINE
  5
D1
100
AcDbEntity
100
AcDbLine
  8
cons
 62
256
370
-1
  6
ByLayer
 10
46.6792305586731047
 20
469.2432440984696314
 30
0.0
 11
46.6792305586731047
 21
471.2432440984696314
 31
0.0
  0
LINE
  5
D2
100
AcDbEntity
100
AcDbLine
  8
cons
 62
256
370
-1
  6
ByLayer
 10
51.1080723161913042
 20
471.211313381317666
 30
0.0
 11
50.9102201210686687
 21
469.2211238152498822
 31
0.0
  0
LINE
  5
D3
100
AcDbEntity
100
AcDbLine
  8
cons
 62
256
370
-1
  6
ByLayer
 10
55.590497800367487
 20
468.7454689398543337
 30
0.0
 11
54.0154595289267974
 21
467.5128885394353233
 31
0.0
  0
ARC
  5
D4
100
AcDbEntity
  8
cons
 62
256
370
-1
  6
ByLayer
100
AcDbCircle
 10
50.4641087031630988
 20
423.868808663557104
 30
0.0
 40
5.509542263395617
100
AcDbArc
 50
180.0
 51
225.000000000000199
  0
ARC
  5
D5
100
AcDbEntity
  8
cons
 62
256
370
-1
  6
ByLayer
100
AcDbCircle
 10
50.4641087031630988
 20
423.868808663557104
 30
0.0
 40
5.509542263395617
100
AcDbArc
 50
225.000000000000199
 51
270.0
  0
CIRCLE
  5
D6
100
AcDbEntity
100
AcDbCircle
  8
cons
 62
256
370
-1
  6
ByLayer
 10
50.4641087031630917
 20
386.1207782020676404
 30
0.0
 40
1.0
  0
CIRCLE
  5
D7
100
AcDbEntity
100
AcDbCircle
  8
cons
 62
256
370
-1
  6
ByLayer
 10
54.4559211945967618
 20
393.8154419917085534
 30
0.0
 40
1.0
  0
CIRCLE
  5
D8
100
AcDbEntity
100
AcDbCircle
  8
cons
 62
256
370
-1
  6
ByLayer
 10
57.872415926648344
 20
401.7822469691282663
 30
0.0
 40
1.0
  0
CIRCLE
  5
D9
100
AcDbEntity
100
AcDbCircle
  8
cons
 62
256
370
-1
  6
ByLayer
 10
60.6951764596405354
 20
409.9782484805824083
 30
0.0
 40
1.0
  0
CIRCLE
  5
DA
100
AcDbEntity
100
AcDbCircle
  8
cons
 62
256
370
-1
  6
ByLayer
 10
44.9545664397674685
 20
459.2241595716784559
 30
0.0
 40
1.0
  0
CIRCLE
  5
DB
100
AcDbEntity
100
AcDbCircle
  8
cons
 62
256
370
-1
  6
ByLayer
 10
40.5177025877967978
 20
459.2241595716784559
 30
0.0
 40
1.0
  0
CIRCLE
  5
DC
100
AcDbEntity
100
AcDbCircle
  8
cons
 62
256
370
-1
  6
ByLayer
 10
36.0808387358261555
 20
459.2241595716785127
 30
0.0
 40
1.0
  0
CIRCLE
  5
DD
100
AcDbEntity
100
AcDbCircle
  8
cons
 62
256
370
-1
  6
ByLayer
 10
46.1307375561291906
 20
394.5439223240057913
 30
0.0
 40
1.0
  0
CIRCLE
  5
DE
100
AcDbEntity
100
AcDbCircle
  8
cons
 62
256
370
-1
  6
ByLayer
 10
42.4865511099576594
 20
403.2873408512426181
 30
0.0
 40
1.0
  0
CIRCLE
  5
DF
100
AcDbEntity
100
AcDbCircle
  8
cons
 62
256
370
-1
  6
ByLayer
 10
37.3549717859444925
 20
421.5081858366519896
 30
0.0
 40
1.0
  0
CIRCLE
  5
E0
100
AcDbEntity
100
AcDbCircle
  8
cons
 62
256
370
-1
  6
ByLayer
 10
39.5550060006503088
 20
412.2947547791679881
 30
0.0
 40
1.0
  0
CIRCLE
  5
E1
100
AcDbEntity
100
AcDbCircle
  8
cons
 62
256
370
-1
  6
ByLayer
 10
35.9006094871072605
 20
430.8683296763913972
 30
0.0
 40
1.0
  0
CIRCLE
  5
E2
100
AcDbEntity
100
AcDbCircle
  8
cons
 62
256
370
-1
  6
ByLayer
 10
35.2012804382971751
 20
440.3149376008465197
 30
0.0
 40
1.0
  0
CIRCLE
  5
E3
100
AcDbEntity
100
AcDbCircle
  8
cons
 62
256
370
-1
  6
ByLayer
 10
35.261486030204729
 20
449.7872043667051116
 30
0.0
 40
1.0
  0
LINE
  5
E4
100
AcDbEntity
100
AcDbLine
  8
cons
 62
256
370
-1
  6
ByLayer
 10
44.9545664397674685
 20
432.7076463905874562
 30
0.0
 11
44.9545664397674685
 21
428.2882275270722516
 31
0.0
  0
LINE
  5
E5
100
AcDbEntity
100
AcDbLine
  8
cons
 62
256
370
-1
  6
ByLayer
 10
44.9545664397674685
 20
428.2882275270722516
 30
0.0
 11
44.9545664397674685
 21
423.868808663557104
 31
0.0
  0
LINE
  5
E6
100
AcDbEntity
100
AcDbLine
  8
cons
 62
256
370
-1
  6
ByLayer
 10
44.9545664397674685
 20
441.5464841176178084
 30
0.0
 11
44.9545664397674685
 21
437.1270652541026607
 31
0.0
  0
LINE
  5
E7
100
AcDbEntity
100
AcDbLine
  8
cons
 62
256
370
-1
  6
ByLayer
 10
44.9545664397674685
 20
437.1270652541026607
 30
0.0
 11
44.9545664397674685
 21
432.7076463905874562
 31
0.0
  0
LINE
  5
E8
100
AcDbEntity
100
AcDbLine
  8
cons
 62
256
370
-1
  6
ByLayer
 10
44.9545664397674614
 20
450.3853218446481037
 30
0.0
 11
44.9545664397674685
 21
445.965902981132956
 31
0.0
  0
LINE
  5
E9
100
AcDbEntity
100
AcDbLine
  8
cons
 62
256
370
-1
  6
ByLayer
 10
44.9545664397674685
 20
445.965902981132956
 30
0.0
 11
44.9545664397674685
 21
441.5464841176178084
 31
0.0
  0
LINE
  5
EA
100
AcDbEntity
100
AcDbLine
  8
cons
 62
256
370
-1
  6
ByLayer
 10
44.9545664397674685
 20
454.8047407081632514
 30
0.0
 11
44.9545664397674614
 21
450.3853218446481037
 31
0.0
  0
ARC
  5
EB
100
AcDbEntity
  8
cons
 62
256
370
-1
  6
ByLayer
100
AcDbCircle
 10
153.2013995900435361
 20
444.3012552493155454
 30
0.0
 40
118.0674334785881427
100
AcDbArc
 50
175.0378043091379823
 51
177.3368190294931992
  0
ARC
  5
EC
100
AcDbEntity
  8
cons
 62
256
370
-1
  6
ByLayer
100
AcDbCircle
 10
153.2013995900435361
 20
444.3012552493155454
 30
0.0
 40
118.0674334785881427
100
AcDbArc
 50
177.3368190294931992
 51
179.6358337498487003
  0
ARC
  5
ED
100
AcDbEntity
  8
cons
 62
256
370
-1
  6
ByLayer
100
AcDbCircle
 10
153.2013995900435361
 20
444.3012552493155454
 30
0.0
 40
118.0674334785881427
100
AcDbArc
 50
179.6358337498487003
 51
181.9348484702037183
  0
ARC
  5
EE
100
AcDbEntity
  8
cons
 62
256
370
-1
  6
ByLayer
100
AcDbCircle
 10
153.2013995900435361
 20
444.3012552493155454
 30
0.0
 40
118.0674334785881427
100
AcDbArc
 50
181.9348484702037183
 51
184.2338631905590205
  0
ARC
  5
EF
100
AcDbEntity
  8
cons
 62
256
370
-1
  6
ByLayer
100
AcDbCircle
 10
153.2013995900435361
 20
444.3012552493155454
 30
0.0
 40
118.0674334785881427
100
AcDbArc
 50
184.2338631905590205
 51
186.5328779109142658
  0
ARC
  5
F0
100
AcDbEntity
  8
cons
 62
256
370
-1
  6
ByLayer
100
AcDbCircle
 10
153.2013995900435361
 20
444.3012552493155454
 30
0.0
 40
118.0674334785881427
100
AcDbArc
 50
186.5328779109142658
 51
188.8318926312695964
  0
ARC
  5
F1
100
AcDbEntity
  8
cons
 62
256
370
-1
  6
ByLayer
100
AcDbCircle
 10
153.2013995900435361
 20
444.3012552493155454
 30
0.0
 40
118.0674334785881427
100
AcDbArc
 50
188.8318926312695964
 51
191.1309073516248702
  0
ARC
  5
F2
100
AcDbEntity
  8
cons
 62
256
370
-1
  6
ByLayer
100
AcDbCircle
 10
153.2013995900435361
 20
444.3012552493155454
 30
0.0
 40
118.0674334785881427
100
AcDbArc
 50
191.1309073516248702
 51
193.4299220719800871
  0
ARC
  5
F3
100
AcDbEntity
  8
cons
 62
256
370
-1
  6
ByLayer
100
AcDbCircle
 10
153.2013995900435361
 20
444.3012552493155454
 30
0.0
 40
118.0674334785881427
100
AcDbArc
 50
193.4299220719800871
 51
195.7289367923353609
  0
ARC
  5
F4
100
AcDbEntity
  8
cons
 62
256
370
-1
  6
ByLayer
100
AcDbCircle
 10
153.2013995900435361
 20
444.3012552493155454
 30
0.0
 40
118.0674334785881427
100
AcDbArc
 50
195.7289367923353609
 51
198.0279515126906347
  0
ARC
  5
F5
100
AcDbEntity
  8
cons
 62
256
370
-1
  6
ByLayer
100
AcDbCircle
 10
153.2013995900435361
 20
444.3012552493155454
 30
0.0
 40
118.0674334785881427
100
AcDbArc
 50
198.0279515126906347
 51
200.3269662330459084
  0
ARC
  5
F6
100
AcDbEntity
  8
cons
 62
256
370
-1
  6
ByLayer
100
AcDbCircle
 10
153.2013995900435361
 20
444.3012552493155454
 30
0.0
 40
118.0674334785881427
100
AcDbArc
 50
200.3269662330459084
 51
202.6259809534011822
  0
ARC
  5
F7
100
AcDbEntity
  8
cons
 62
256
370
-1
  6
ByLayer
100
AcDbCircle
 10
153.2013995900435361
 20
444.3012552493155454
 30
0.0
 40
118.0674334785881427
100
AcDbArc
 50
202.6259809534011822
 51
204.924995673756456
  0
ARC
  5
F8
100
AcDbEntity
  8
cons
 62
256
370
-1
  6
ByLayer
100
AcDbCircle
 10
153.2013995900435361
 20
444.3012552493155454
 30
0.0
 40
118.0674334785881427
100
AcDbArc
 50
204.924995673756456
 51
207.2240103941117297
  0
ARC
  5
F9
100
AcDbEntity
  8
cons
 62
256
370
-1
  6
ByLayer
100
AcDbCircle
 10
-52.2731821837173243
 20
444.3012552493156022
 30
0.0
 40
118.0674334785881427
100
AcDbArc
 50
332.5807663468995656
 51
334.6845578082661632
  0
ARC
  5
FA
100
AcDbEntity
  8
cons
 62
256
370
-1
  6
ByLayer
100
AcDbCircle
 10
-52.2731821837173243
 20
444.3012552493156022
 30
0.0
 40
118.0674334785881427
100
AcDbArc
 50
334.6845578082661632
 51
336.7883492696327039
  0
ARC
  5
FB
100
AcDbEntity
  8
cons
 62
256
370
-1
  6
ByLayer
100
AcDbCircle
 10
-52.2731821837173243
 20
444.3012552493156022
 30
0.0
 40
118.0674334785881427
100
AcDbArc
 50
336.7883492696327039
 51
338.8921407309992446
  0
ARC
  5
FC
100
AcDbEntity
  8
cons
 62
256
370
-1
  6
ByLayer
100
AcDbCircle
 10
-52.2731821837173243
 20
444.3012552493156022
 30
0.0
 40
118.0674334785881427
100
AcDbArc
 50
338.8921407309992446
 51
340.9959321923657853
  0
ARC
  5
FD
100
AcDbEntity
  8
cons
 62
256
370
-1
  6
ByLayer
100
AcDbCircle
 10
-52.2731821837173243
 20
444.3012552493156022
 30
0.0
 40
118.0674334785881427
100
AcDbArc
 50
340.9959321923657853
 51
343.0997236537323829
  0
ARC
  5
FE
100
AcDbEntity
  8
cons
 62
256
370
-1
  6
ByLayer
100
AcDbCircle
 10
-52.2731821837173243
 20
444.3012552493156022
 30
0.0
 40
118.0674334785881427
100
AcDbArc
 50
343.0997236537323829
 51
345.2035151150989236
  0
CIRCLE
  5
FF
100
AcDbEntity
100
AcDbCircle
  8
cons
 62
256
370
-1
  6
ByLayer
 10
52.5306562208200063
 20
389.9314630490832201
 30
0.0
 40
1.0
  0
CIRCLE
  5
100
100
AcDbEntity
100
AcDbCircle
  8
cons
 62
256
370
-1
  6
ByLayer
 10
56.2373082392738155
 20
397.7674791680348108
 30
0.0
 40
1.0
  0
CIRCLE
  5
101
100
AcDbEntity
100
AcDbCircle
  8
cons
 62
256
370
-1
  6
ByLayer
 10
59.3590400228191584
 20
405.854333221001184
 30
0.0
 40
1.0
  0
CIRCLE
  5
102
100
AcDbEntity
100
AcDbCircle
  8
cons
 62
256
370
-1
  6
ByLayer
 10
61.8790240363392385
 20
414.1484334358515866
 30
0.0
 40
1.0
  0
CIRCLE
  5
103
100
AcDbEntity
100
AcDbCircle
  8
cons
 62
256
370
-1
  6
ByLayer
 10
35.5764843347054693
 20
454.513902281078515
 30
0.0
 40
1.0
  0
CIRCLE
  5
104
100
AcDbEntity
100
AcDbCircle
  8
cons
 62
256
370
-1
  6
ByLayer
 10
35.1363509159889915
 20
445.0516750078292603
 30
0.0
 40
1.0
  0
CIRCLE
  5
105
100
AcDbEntity
100
AcDbCircle
  8
cons
 62
256
370
-1
  6
ByLayer
 10
35.4561700716477901
 20
435.5846174869015499
 30
0.0
 40
1.0
  0
CIRCLE
  5
106
100
AcDbEntity
100
AcDbCircle
  8
cons
 62
256
370
-1
  6
ByLayer
 10
36.5338832128496449
 20
426.1736665900915
 30
0.0
 40
1.0
  0
CIRCLE
  5
107
100
AcDbEntity
100
AcDbCircle
  8
cons
 62
256
370
-1
  6
ByLayer
 10
38.3625533935186809
 20
416.8793980461328488
 30
0.0
 40
1.0
  0
CIRCLE
  5
108
100
AcDbEntity
100
AcDbCircle
  8
cons
 62
256
370
-1
  6
ByLayer
 10
40.930409961568742
 20
407.7616365312208586
 30
0.0
 40
1.0
  0
CIRCLE
  5
109
100
AcDbEntity
100
AcDbCircle
  8
cons
 62
256
370
-1
  6
ByLayer
 10
44.220924323386086
 20
398.8790705938600922
 30
0.0
 40
1.0
  0
CIRCLE
  5
10A
100
AcDbEntity
100
AcDbCircle
  8
cons
 62
256
370
-1
  6
ByLayer
 10
48.2129163338866036
 20
390.2888748926558264
 30
0.0
 40
1.0
  0
CIRCLE
  5
10B
100
AcDbEntity
100
AcDbCircle
  8
cons
 62
256
370
-1
  6
ByLayer
 10
62.9089868476531038
 20
418.3592664001614025
 30
0.0
 40
1.0
  0
CIRCLE
  5
10C
100
AcDbEntity
100
AcDbCircle
  8
cons
 62
256
370
-1
  6
ByLayer
 10
58.5789868476531055
 20
418.3592664001614025
 30
0.0
 40
1.0
  0
CIRCLE
  5
10D
100
AcDbEntity
100
AcDbCircle
  8
cons
 62
256
370
-1
  6
ByLayer
 10
54.2489868476531001
 20
418.3592664001614594
 30
0.0
 40
1.0
  0
CIRCLE
  5
10E
100
AcDbEntity
100
AcDbCircle
  8
cons
 62
256
370
-1
  6
ByLayer
 10
49.9190711876962254
 20
418.3862919003473166
 30
0.0
 40
1.0
  0
CIRCLE
  5
10F
100
AcDbEntity
100
AcDbCircle
  8
cons
 62
256
370
-1
  6
ByLayer
 10
46.1252387416790555
 20
420.4733317589862622
 30
0.0
 40
1.0
  0
CIRCLE
  5
110
100
AcDbEntity
100
AcDbCircle
  8
cons
 62
256
370
-1
  6
ByLayer
 10
44.9545664397674756
 20
424.642075737876894
 30
0.0
 40
1.0
  0
CIRCLE
  5
111
100
AcDbEntity
100
AcDbCircle
  8
cons
 62
256
370
-1
  6
ByLayer
 10
44.9545664397674685
 20
428.9720757378768781
 30
0.0
 40
1.0
  0
CIRCLE
  5
112
100
AcDbEntity
100
AcDbCircle
  8
cons
 62
256
370
-1
  6
ByLayer
 10
44.9545664397674614
 20
433.3020757378768621
 30
0.0
 40
1.0
  0
CIRCLE
  5
113
100
AcDbEntity
100
AcDbCircle
  8
cons
 62
256
370
-1
  6
ByLayer
 10
44.9545660675377761
 20
437.6320757378768462
 30
0.0
 40
1.0
  0
CIRCLE
  5
114
100
AcDbEntity
100
AcDbCircle
  8
cons
 62
256
370
-1
  6
ByLayer
 10
44.9545664397674685
 20
441.9620757378768303
 30
0.0
 40
1.0
  0
CIRCLE
  5
115
100
AcDbEntity
100
AcDbCircle
  8
cons
 62
256
370
-1
  6
ByLayer
 10
44.9545660675377761
 20
446.2920757378768144
 30
0.0
 40
1.0
  0
CIRCLE
  5
116
100
AcDbEntity
100
AcDbCircle
  8
cons
 62
256
370
-1
  6
ByLayer
 10
44.9545664397674685
 20
450.6220757378767985
 30
0.0
 40
1.0
  0
CIRCLE
  5
117
100
AcDbEntity
100
AcDbCircle
  8
cons
 62
256
370
-1
  6
ByLayer
 10
44.9545664397674756
 20
454.9520757378767826
 30
0.0
 40
1.0
  0
ARC
  5
118
100
AcDbEntity
  8
cons
 62
256
370
-1
  6
ByLayer
100
AcDbCircle
 10
153.2013995900435361
 20
444.3012552493155454
 30
0.0
 40
118.0674334785881427
100
AcDbArc
 50
207.2240103941117297
 51
210.0083066953774562
  0
ARC
  5
119
100
AcDbEntity
  8
cons
 62
256
370
-1
  6
ByLayer
100
AcDbCircle
 10
-52.2731821837173243
 20
444.3012552493156022
 30
0.0
 40
118.0674334785881427
100
AcDbArc
 50
329.9916933046218901
 51
332.5807663468995656
  0
LINE
  5
11A
100
AcDbEntity
100
AcDbLine
  8
cons
 62
256
370
-1
  6
ByLayer
 10
53.4183170712063955
 20
389.4709652589784241
 30
0.0
 11
51.6429953704336882
 21
390.3919608391879592
 31
0.0
  0
LINE
  5
11B
100
AcDbEntity
100
AcDbLine
  8
cons
 62
256
370
-1
  6
ByLayer
 10
55.359888531175379
 20
393.3878404781484051
 30
0.0
 11
53.5519538580181163
 21
394.2430435052687017
 31
0.0
  0
LINE
  5
11C
100
AcDbEntity
100
AcDbLine
  8
cons
 62
256
370
-1
  6
ByLayer
 10
57.1563634539589813
 20
397.3733503662961084
 30
0.0
 11
55.3182530245886142
 21
398.1616079697735131
 31
0.0
  0
LINE
  5
11D
100
AcDbEntity
100
AcDbLine
  8
cons
 62
256
370
-1
  6
ByLayer
 10
58.8053200718912308
 20
401.4221221910462418
 30
0.0
 11
56.9395117814054714
 21
402.1423717472102339
 31
0.0
  0
LINE
  5
11E
100
AcDbEntity
100
AcDbLine
  8
cons
 62
256
370
-1
  6
ByLayer
 10
60.3045354817916319
 20
405.5286979387259407
 30
0.0
 11
58.4135445638467274
 21
406.1799685032764273
 31
0.0
  0
LINE
  5
11F
100
AcDbEntity
100
AcDbLine
  8
cons
 62
256
370
-1
  6
ByLayer
 10
61.6519886415860654
 20
409.687541672129953
 30
0.0
 11
59.7383642776949699
 21
410.2689552890348637
 31
0.0
  0
LINE
  5
120
100
AcDbEntity
100
AcDbLine
  8
cons
 62
256
370
-1
  6
ByLayer
 10
62.8458630948062762
 20
413.8930469933324616
 30
0.0
 11
60.9121849778721867
 21
414.4038198783707685
 31
0.0
  0
LINE
  5
121
100
AcDbEntity
100
AcDbLine
  8
cons
 62
256
370
-1
  6
ByLayer
 10
63.9089868476530967
 20
418.3592664001614025
 30
0.0
 11
50.4641087031630988
 21
418.3592664001614594
 31
0.0
  0
ARC
  5
122
100
AcDbEntity
  8
cons
 62
256
370
-1
  6
ByLayer
100
AcDbCircle
 10
-52.2731821837173243
 20
444.3012552493156022
 30
0.0
 40
118.0674334785881427
100
AcDbArc
 50
345.2035151150989236
 51
347.7925881573760307
  0
LINE
  5
123
100
AcDbEntity
100
AcDbLine
  8
cons
 62
256
370
-1
  6
ByLayer
 10
47.3236915903404167
 20
389.8314042865343367
 30
0.0
 11
49.1021410774328118
 21
390.7463454987773162
 31
0.0
  0
LINE
  5
124
100
AcDbEntity
100
AcDbLine
  8
cons
 62
256
370
-1
  6
ByLayer
 10
45.2238773078852603
 20
394.1224908465921999
 30
0.0
 11
47.0375978043730782
 21
394.9653538014193828
 31
0.0
  0
LINE
  5
125
100
AcDbEntity
100
AcDbLine
  8
cons
 62
256
370
-1
  6
ByLayer
 10
43.2978884611182622
 20
398.4943566781155369
 30
0.0
 11
45.143960185653917
 21
399.2637845096046476
 31
0.0
  0
LINE
  5
126
100
AcDbEntity
100
AcDbLine
  8
cons
 62
256
370
-1
  6
ByLayer
 10
41.5488255643255968
 20
402.9399638211023671
 30
0.0
 11
43.4242766555897362
 21
403.6347178813828691
 31
0.0
  0
LINE
  5
127
100
AcDbEntity
100
AcDbLine
  8
cons
 62
256
370
-1
  6
ByLayer
 10
39.9795043111225255
 20
407.4521556045881994
 30
0.0
 11
41.8813156120149799
 21
408.0711174578535179
 31
0.0
  0
LINE
  5
128
100
AcDbEntity
100
AcDbLine
  8
cons
 62
256
370
-1
  6
ByLayer
 10
38.5924510416657895
 20
412.023668167668518
 30
0.0
 11
40.5175609596348636
 21
412.5658413906674582
 31
0.0
  0
LINE
  5
129
100
AcDbEntity
100
AcDbLine
  8
cons
 62
256
370
-1
  6
ByLayer
 10
37.3898986756760294
 20
416.6471421530786756
 30
0.0
 11
39.3352081113613679
 21
417.1116539391870219
 31
0.0
  0
LINE
  5
12A
100
AcDbEntity
100
AcDbLine
  8
cons
 62
256
370
-1
  6
ByLayer
 10
36.373783117816906
 20
421.3151345545065283
 30
0.0
 11
38.3361604540720933
 21
421.7012371187974509
 31
0.0
  0
LINE
  5
12B
100
AcDbEntity
100
AcDbLine
  8
cons
 62
256
370
-1
  6
ByLayer
 10
35.5457401412180189
 20
426.0201306985663336
 30
0.0
 11
37.5220262844812567
 21
426.3272024816166663
 31
0.0
  0
LINE
  5
12C
100
AcDbEntity
100
AcDbLine
  8
cons
 62
256
370
-1
  6
ByLayer
 10
34.9071027541586787
 20
430.7545563421437009
 30
0.0
 11
36.8941162200558423
 21
430.9821030106390936
 31
0.0
  0
LINE
  5
12D
100
AcDbEntity
100
AcDbLine
  8
cons
 62
256
370
-1
  6
ByLayer
 10
34.4588990541512601
 20
435.510789865638003
 30
0.0
 11
36.4534410891443201
 21
435.6584451081650968
 31
0.0
  0
LINE
  5
12E
100
AcDbEntity
100
AcDbLine
  8
cons
 62
256
370
-1
  6
ByLayer
 10
34.2018505728792377
 20
440.28117454247365
 30
0.0
 11
36.2007103037151055
 21
440.3487006592193893
 31
0.0
  0
LINE
  5
12F
100
AcDbEntity
100
AcDbLine
  8
cons
 62
256
370
-1
  6
ByLayer
 10
34.1363711146539686
 20
445.0580308651254313
 30
0.0
 11
36.1363307173240145
 21
445.0453191505330892
 31
0.0
  0
LINE
  5
130
100
AcDbEntity
100
AcDbLine
  8
cons
 62
256
370
-1
  6
ByLayer
 10
34.2625660902601794
 20
449.833668907821675
 30
0.0
 11
36.2604059701492787
 21
449.7407398255885482
 31
0.0
  0
LINE
  5
131
100
AcDbEntity
100
AcDbLine
  8
cons
 62
256
370
-1
  6
ByLayer
 10
34.5802323472624877
 20
454.600400706011385
 30
0.0
 11
36.5727363221484794
 21
454.427403856145645
 31
0.0
  0
LINE
  5
132
100
AcDbEntity
100
AcDbLine
  8
cons
 62
256
370
-1
  6
ByLayer
 10
40.5177025877967978
 20
459.2241595716784559
 30
0.0
 11
35.0808387358261342
 21
459.2241595716784559
 31
0.0
  0
ARC
  5
133
100
AcDbEntity
  8
cons
 62
256
370
-1
  6
ByLayer
100
AcDbCircle
 10
153.2013995900435361
 20
444.3012552493155454
 30
0.0
 40
118.0674334785881427
100
AcDbArc
 50
172.2535080078721421
 51
175.0378043091379823
  0
LINE
  5
134
100
AcDbEntity
100
AcDbLine
  8
cons
 62
256
370
-1
  6
ByLayer
 10
40.5177025877968049
 20
460.2241595716784559
 30
0.0
 11
40.5177025877968049
 21
458.2241595716784559
 31
0.0
  0
LINE
  5
135
100
AcDbEntity
100
AcDbLine
  8
cons
 62
256
370
-1
  6
ByLayer
 10
44.9545664397674685
 20
460.2241595716784559
 30
0.0
 11
44.9545664397674685
 21
454.8047407081632514
 31
0.0
  0
LINE
  5
136
100
AcDbEntity
100
AcDbLine
  8
cons
 62
256
370
-1
  6
ByLayer
 10
45.9545664397674756
 20
459.2241595716784559
 30
0.0
 11
40.5177025877967978
 21
459.2241595716784559
 31
0.0
  0
LINE
  5
137
100
AcDbEntity
100
AcDbLine
  8
cons
 62
256
370
-1
  6
ByLayer
 10
45.9545664397674685
 20
450.6220757378767985
 30
0.0
 11
43.9545664397674756
 21
450.6220757378767985
 31
0.0
  0
LINE
  5
138
100
AcDbEntity
100
AcDbLine
  8
cons
 62
256
370
-1
  6
ByLayer
 10
45.9545664397674685
 20
454.9520757378767826
 30
0.0
 11
43.9545664397674614
 21
454.9520757378767826
 31
0.0
  0
LINE
  5
139
100
AcDbEntity
100
AcDbLine
  8
cons
 62
256
370
-1
  6
ByLayer
 10
45.9545660675377761
 20
446.2920757378768144
 30
0.0
 11
43.9545660675377761
 21
446.2920757378768144
 31
0.0
  0
LINE
  5
13A
100
AcDbEntity
100
AcDbLine
  8
cons
 62
256
370
-1
  6
ByLayer
 10
45.9545664397674685
 20
441.9620757378768303
 30
0.0
 11
43.9545664397674685
 21
441.9620757378768303
 31
0.0
  0
LINE
  5
13B
100
AcDbEntity
100
AcDbLine
  8
cons
 62
256
370
-1
  6
ByLayer
 10
45.9545660675377761
 20
437.6320757378768462
 30
0.0
 11
43.9545660675377761
 21
437.6320757378768462
 31
0.0
  0
LINE
  5
13C
100
AcDbEntity
100
AcDbLine
  8
cons
 62
256
370
-1
  6
ByLayer
 10
45.9545664397674685
 20
433.3020757378768621
 30
0.0
 11
43.9545664397674685
 21
433.3020757378768621
 31
0.0
  0
LINE
  5
13D
100
AcDbEntity
100
AcDbLine
  8
cons
 62
256
370
-1
  6
ByLayer
 10
45.9545664397674685
 20
428.9720757378768781
 30
0.0
 11
43.9545664397674614
 21
428.9720757378768781
 31
0.0
  0
LINE
  5
13E
100
AcDbEntity
100
AcDbLine
  8
cons
 62
256
370
-1
  6
ByLayer
 10
45.9545664397674614
 20
424.642075737876894
 30
0.0
 11
43.9545664397674614
 21
424.642075737876894
 31
0.0
  0
LINE
  5
13F
100
AcDbEntity
100
AcDbLine
  8
cons
 62
256
370
-1
  6
ByLayer
 10
58.5789868476530984
 20
419.3592664001614025
 30
0.0
 11
58.5789868476531055
 21
417.3592664001614025
 31
0.0
  0
LINE
  5
140
100
AcDbEntity
100
AcDbLine
  8
cons
 62
256
370
-1
  6
ByLayer
 10
54.2489868476531001
 20
419.3592664001614594
 30
0.0
 11
54.2489868476531001
 21
417.3592664001614594
 31
0.0
  0
LINE
  5
141
100
AcDbEntity
100
AcDbLine
  8
cons
 62
256
370
-1
  6
ByLayer
 10
49.8201450901349006
 20
417.3911971173134248
 30
0.0
 11
50.0179972852575361
 21
419.3813866833812085
 31
0.0
  0
LINE
  5
142
100
AcDbEntity
100
AcDbLine
  8
cons
 62
256
370
-1
  6
ByLayer
 10
45.3377196059587178
 20
419.857041558776757
 30
0.0
 11
46.9127578773994074
 21
421.0896219591957674
 31
0.0
  0
CIRCLE
  5
143
100
AcDbEntity
100
AcDbCircle
  8
helper
 62
256
370
-1
  6
ByLayer
 10
-39.7500000000000355
 20
333.7640348789332165
 30
0.0
 40
0.975
  0
CIRCLE
  5
144
100
AcDbEntity
100
AcDbCircle
  8
helper
 62
256
370
-1
  6
ByLayer
 10
-35.8579828208522073
 20
341.2663320738331549
 30
0.0
 40
0.975
  0
CIRCLE
  5
145
100
AcDbEntity
100
AcDbCircle
  8
helper
 62
256
370
-1
  6
ByLayer
 10
-32.5269004571019167
 20
349.0339669268173566
 30
0.0
 40
0.975
  0
CIRCLE
  5
146
100
AcDbEntity
100
AcDbCircle
  8
helper
 62
256
370
-1
  6
ByLayer
 10
-29.7747089374345251
 20
357.0250684004851109
 30
0.0
 40
0.975
  0
CIRCLE
  5
147
100
AcDbEntity
100
AcDbCircle
  8
helper
 62
256
370
-1
  6
ByLayer
 10
-49.4477459624821734
 20
405.039831714303773
 30
0.0
 40
0.975
  0
CIRCLE
  5
148
100
AcDbEntity
100
AcDbCircle
  8
helper
 62
256
370
-1
  6
ByLayer
 10
-53.7736882181535449
 20
405.0398317143038298
 30
0.0
 40
0.975
  0
CIRCLE
  5
149
100
AcDbEntity
100
AcDbCircle
  8
helper
 62
256
370
-1
  6
ByLayer
 10
-43.9750368683580888
 20
341.9766003978229492
 30
0.0
 40
0.975
  0
CIRCLE
  5
14A
100
AcDbEntity
100
AcDbCircle
  8
helper
 62
256
370
-1
  6
ByLayer
 10
-47.5281186533753299
 20
350.5014334618788325
 30
0.0
 40
0.975
  0
CIRCLE
  5
14B
100
AcDbEntity
100
AcDbCircle
  8
helper
 62
256
370
-1
  6
ByLayer
 10
-52.5314084942881721
 20
368.2667573226529498
 30
0.0
 40
0.975
  0
CIRCLE
  5
14C
100
AcDbEntity
100
AcDbCircle
  8
helper
 62
256
370
-1
  6
ByLayer
 10
-50.3863751349500006
 20
359.2836620416060782
 30
0.0
 40
0.975
  0
CIRCLE
  5
14D
100
AcDbEntity
100
AcDbCircle
  8
helper
 62
256
370
-1
  6
ByLayer
 10
-53.949411735654472
 20
377.3928975663989149
 30
0.0
 40
0.975
  0
CIRCLE
  5
14E
100
AcDbEntity
100
AcDbCircle
  8
helper
 62
256
370
-1
  6
ByLayer
 10
-54.6312575582443003
 20
386.6033402927426437
 30
0.0
 40
0.975
  0
CIRCLE
  5
14F
100
AcDbEntity
100
AcDbCircle
  8
helper
 62
256
370
-1
  6
ByLayer
 10
-54.5725571061344397
 20
395.8388003894547751
 30
0.0
 40
0.975
  0
CIRCLE
  5
150
100
AcDbEntity
100
AcDbCircle
  8
helper
 62
256
370
-1
  6
ByLayer
 10
-37.7351161702845417
 20
337.479452604773428
 30
0.0
 40
0.975
  0
CIRCLE
  5
151
100
AcDbEntity
100
AcDbCircle
  8
helper
 62
256
370
-1
  6
ByLayer
 10
-34.1211304522920784
 20
345.1195683207512275
 30
0.0
 40
0.975
  0
CIRCLE
  5
152
100
AcDbEntity
100
AcDbCircle
  8
helper
 62
256
370
-1
  6
ByLayer
 10
-31.0774419633353673
 20
353.0042510223934187
 30
0.0
 40
0.975
  0
CIRCLE
  5
153
100
AcDbEntity
100
AcDbCircle
  8
helper
 62
256
370
-1
  6
ByLayer
 10
-28.6204575501532901
 20
361.0909987318725598
 30
0.0
 40
0.975
  0
CIRCLE
  5
154
100
AcDbEntity
100
AcDbCircle
  8
helper
 62
256
370
-1
  6
ByLayer
 10
-54.2654337592462142
 20
400.4473308559688576
 30
0.0
 40
0.975
  0
CIRCLE
  5
155
100
AcDbEntity
100
AcDbCircle
  8
helper
 62
256
370
-1
  6
ByLayer
 10
-54.6945638424947802
 20
391.2216592645507944
 30
0.0
 40
0.975
  0
CIRCLE
  5
156
100
AcDbEntity
100
AcDbCircle
  8
helper
 62
256
370
-1
  6
ByLayer
 10
-54.382740165727455
 20
381.9912781816462939
 30
0.0
 40
0.975
  0
CIRCLE
  5
157
100
AcDbEntity
100
AcDbCircle
  8
helper
 62
256
370
-1
  6
ByLayer
 10
-53.3319698530556465
 20
372.8156010572565151
 30
0.0
 40
0.975
  0
CIRCLE
  5
158
100
AcDbEntity
100
AcDbCircle
  8
helper
 62
256
370
-1
  6
ByLayer
 10
-51.5490164269033357
 20
363.7536892268968245
 30
0.0
 40
0.975
  0
CIRCLE
  5
159
100
AcDbEntity
100
AcDbCircle
  8
helper
 62
256
370
-1
  6
ByLayer
 10
-49.0453562730545229
 20
354.8638717498575943
 30
0.0
 40
0.975
  0
CIRCLE
  5
15A
100
AcDbEntity
100
AcDbCircle
  8
helper
 62
256
370
-1
  6
ByLayer
 10
-45.8371047702826147
 20
346.2033699609308997
 30
0.0
 40
0.975
  0
CIRCLE
  5
15B
100
AcDbEntity
100
AcDbCircle
  8
helper
 62
256
370
-1
  6
ByLayer
 10
-41.9449125600446138
 20
337.8279291522567291
 30
0.0
 40
0.975
  0
CIRCLE
  5
15C
100
AcDbEntity
100
AcDbCircle
  8
helper
 62
256
370
-1
  6
ByLayer
 10
-27.6162438091222739
 20
365.1965608720746559
 30
0.0
 40
0.975
  0
CIRCLE
  5
15D
100
AcDbEntity
100
AcDbCircle
  8
helper
 62
256
370
-1
  6
ByLayer
 10
-31.8379938091222741
 20
365.1965608720746559
 30
0.0
 40
0.975
  0
CIRCLE
  5
15E
100
AcDbEntity
100
AcDbCircle
  8
helper
 62
256
370
-1
  6
ByLayer
 10
-40.2814115775802293
 20
365.222910734755942
 30
0.0
 40
0.975
  0
CIRCLE
  5
15F
100
AcDbEntity
100
AcDbCircle
  8
helper
 62
256
370
-1
  6
ByLayer
 10
-43.9803982124469712
 20
367.2577745969288685
 30
0.0
 40
0.975
  0
CIRCLE
  5
160
100
AcDbEntity
100
AcDbCircle
  8
helper
 62
256
370
-1
  6
ByLayer
 10
-45.1218037068107591
 20
371.3222999763472671
 30
0.0
 40
0.975
  0
CIRCLE
  5
161
100
AcDbEntity
100
AcDbCircle
  8
helper
 62
256
370
-1
  6
ByLayer
 10
-45.1218037068107662
 20
375.5440499763472531
 30
0.0
 40
0.975
  0
CIRCLE
  5
162
100
AcDbEntity
100
AcDbCircle
  8
helper
 62
256
370
-1
  6
ByLayer
 10
-45.1218037068107733
 20
379.765799976347239
 30
0.0
 40
0.975
  0
CIRCLE
  5
163
100
AcDbEntity
100
AcDbCircle
  8
helper
 62
256
370
-1
  6
ByLayer
 10
-45.1218040697347149
 20
383.9875499763472249
 30
0.0
 40
0.975
  0
CIRCLE
  5
164
100
AcDbEntity
100
AcDbCircle
  8
helper
 62
256
370
-1
  6
ByLayer
 10
-45.1218037068107662
 20
388.2092999763472108
 30
0.0
 40
0.975
  0
CIRCLE
  5
165
100
AcDbEntity
100
AcDbCircle
  8
helper
 62
256
370
-1
  6
ByLayer
 10
-45.1218040697347149
 20
392.4310499763471967
 30
0.0
 40
0.975
  0
CIRCLE
  5
166
100
AcDbEntity
100
AcDbCircle
  8
helper
 62
256
370
-1
  6
ByLayer
 10
-45.1218037068107662
 20
396.6527999763471826
 30
0.0
 40
0.975
  0
CIRCLE
  5
167
100
AcDbEntity
100
AcDbCircle
  8
helper
 62
256
370
-1
  6
ByLayer
 10
-45.1218037068107591
 20
400.8745499763471685
 30
0.0
 40
0.975
  0
LINE
  5
168
100
AcDbEntity
100
AcDbLine
  8
helper
 62
256
370
-1
  6
ByLayer
 10
-36.8696468411578167
 20
337.0304672594212434
 30
0.0
 11
-38.6005854994112028
 21
337.9284379501255557
 31
0.0
  0
LINE
  5
169
100
AcDbEntity
100
AcDbLine
  8
helper
 62
256
370
-1
  6
ByLayer
 10
-34.9766146676880538
 20
340.8494205981119762
 30
0.0
 11
-36.7393509740163893
 21
341.6832435495542768
 31
0.0
  0
LINE
  5
16A
100
AcDbEntity
100
AcDbLine
  8
helper
 62
256
370
-1
  6
ByLayer
 10
-33.2250516179740458
 20
344.7352927390559785
 30
0.0
 11
-35.0172092866101536
 21
345.5038439024464765
 31
0.0
  0
LINE
  5
16B
100
AcDbEntity
100
AcDbLine
  8
helper
 62
256
370
-1
  6
ByLayer
 10
-31.6173189154901024
 20
348.68284526818735
 30
0.0
 11
-33.4364819987137167
 21
349.3850885854472494
 31
0.0
  0
LINE
  5
16C
100
AcDbEntity
100
AcDbLine
  8
helper
 62
256
370
-1
  6
ByLayer
 10
-30.1555838908372067
 20
352.6867566221750963
 30
0.0
 11
-31.9993000358334854
 21
353.3217454226117979
 31
0.0
  0
LINE
  5
16D
100
AcDbEntity
100
AcDbLine
  8
helper
 62
256
370
-1
  6
ByLayer
 10
-28.8418170600376342
 20
356.7416292622439755
 30
0.0
 11
-30.7076008148314514
 21
357.3085075387263032
 31
0.0
  0
LINE
  5
16E
100
AcDbEntity
100
AcDbLine
  8
helper
 62
256
370
-1
  6
ByLayer
 10
-27.6777894681479282
 20
360.8419969504164442
 30
0.0
 11
-29.5631256321586662
 21
361.3400005133287891
 31
0.0
  0
LINE
  5
16F
100
AcDbEntity
100
AcDbLine
  8
helper
 62
256
370
-1
  6
ByLayer
 10
-42.8119066850021426
 20
337.3818953112882468
 30
0.0
 11
-41.0779184350870565
 21
338.2739629932251546
 31
0.0
  0
LINE
  5
170
100
AcDbEntity
100
AcDbLine
  8
helper
 62
256
370
-1
  6
ByLayer
 10
-44.8592256103959244
 20
341.5657047073447075
 30
0.0
 11
-43.0908481263202958
 21
342.3874960883011909
 31
0.0
  0
LINE
  5
171
100
AcDbEntity
100
AcDbLine
  8
helper
 62
256
370
-1
  6
ByLayer
 10
-46.7370647359937408
 20
345.8282738930799383
 30
0.0
 11
-44.9371448045714814
 21
346.5784660287818042
 31
0.0
  0
LINE
  5
172
100
AcDbEntity
100
AcDbLine
  8
helper
 62
256
370
-1
  6
ByLayer
 10
-48.442401060366592
 20
350.1627408574921105
 30
0.0
 11
-46.6138362463840537
 21
350.8401260662656114
 31
0.0
  0
LINE
  5
173
100
AcDbEntity
100
AcDbLine
  8
helper
 62
256
370
-1
  6
ByLayer
 10
-49.9724892822395859
 20
354.5621278463908084
 30
0.0
 11
-48.1182232638694458
 21
355.1656156533244939
 31
0.0
  0
LINE
  5
174
100
AcDbEntity
100
AcDbLine
  8
helper
 62
256
370
-1
  6
ByLayer
 10
-51.3248662199599011
 20
359.0193525953940821
 30
0.0
 11
-49.4478840499400576
 21
359.5479714878180744
 31
0.0
  0
LINE
  5
175
100
AcDbEntity
100
AcDbLine
  8
helper
 62
256
370
-1
  6
ByLayer
 10
-52.4973547767999236
 20
363.5272397311690042
 30
0.0
 11
-50.6006780770067195
 21
363.9801387226246447
 31
0.0
  0
LINE
  5
176
100
AcDbEntity
100
AcDbLine
  8
helper
 62
256
370
-1
  6
ByLayer
 10
-53.4880674457125664
 20
368.0785323225611592
 30
0.0
 11
-51.5747495428637563
 21
368.4549823227447973
 31
0.0
  0
LINE
  5
177
100
AcDbEntity
100
AcDbLine
  8
helper
 62
256
370
-1
  6
ByLayer
 10
-54.2954093478964808
 20
372.6659035630194694
 30
0.0
 11
-52.3685303582148265
 21
372.9652985514935608
 31
0.0
  0
LINE
  5
178
100
AcDbEntity
100
AcDbLine
  8
helper
 62
256
370
-1
  6
ByLayer
 10
-54.9180808002793412
 20
377.281968565507384
 30
0.0
 11
-52.9807426710296028
 21
377.503826567290389
 31
0.0
  0
LINE
  5
179
100
AcDbEntity
100
AcDbLine
  8
helper
 62
256
370
-1
  6
ByLayer
 10
-55.3550794077865689
 20
381.9192962509143285
 30
0.0
 11
-53.4104009236683339
 21
382.0632601123782592
 31
0.0
  0
LINE
  5
17A
100
AcDbEntity
100
AcDbLine
  8
helper
 62
256
370
-1
  6
ByLayer
 10
-55.6057016770267936
 20
386.5704213108290901
 30
0.0
 11
-53.6568134394618212
 21
386.6362592746561972
 31
0.0
  0
LINE
  5
17B
100
AcDbEntity
100
AcDbLine
  8
helper
 62
256
370
-1
  6
ByLayer
 10
-55.6695441487964331
 20
391.2278562254145982
 30
0.0
 11
-53.7195835361931344
 21
391.2154623036870476
 31
0.0
  0
LINE
  5
17C
100
AcDbEntity
100
AcDbLine
  8
helper
 62
256
370
-1
  6
ByLayer
 10
-55.5465040475803704
 20
395.8841033170434116
 30
0.0
 11
-53.5986101646885018
 21
395.7934974618661386
 31
0.0
  0
LINE
  5
17D
100
AcDbEntity
100
AcDbLine
  8
helper
 62
256
370
-1
  6
ByLayer
 10
-55.2367794470031228
 20
400.5316668202783603
 30
0.0
 11
-53.2940880714892842
 21
400.362994891659298
 31
0.0
  0
LINE
  5
17E
100
AcDbEntity
100
AcDbLine
  8
helper
 62
256
370
-1
  6
ByLayer
 10
-49.4477459624821662
 20
406.0148317143037957
 30
0.0
 11
-49.4477459624821662
 21
404.0648317143037502
 31
0.0
  0
LINE
  5
17F
100
AcDbEntity
100
AcDbLine
  8
helper
 62
256
370
-1
  6
ByLayer
 10
-44.1468037068107648
 20
396.6527999763471826
 30
0.0
 11
-46.0968037068107606
 21
396.6527999763471826
 31
0.0
  0
LINE
  5
180
100
AcDbEntity
100
AcDbLine
  8
helper
 62
256
370
-1
  6
ByLayer
 10
-44.1468037068107648
 20
400.8745499763471685
 30
0.0
 11
-46.0968037068107748
 21
400.8745499763471685
 31
0.0
  0
LINE
  5
181
100
AcDbEntity
100
AcDbLine
  8
helper
 62
256
370
-1
  6
ByLayer
 10
-44.1468040697347206
 20
392.4310499763471967
 30
0.0
 11
-46.0968040697347163
 21
392.4310499763471967
 31
0.0
  0
LINE
  5
182
100
AcDbEntity
100
AcDbLine
  8
helper
 62
256
370
-1
  6
ByLayer
 10
-44.1468037068107648
 20
388.2092999763472108
 30
0.0
 11
-46.0968037068107677
 21
388.2092999763472108
 31
0.0
  0
LINE
  5
183
100
AcDbEntity
100
AcDbLine
  8
helper
 62
256
370
-1
  6
ByLayer
 10
-44.1468040697347206
 20
383.9875499763472249
 30
0.0
 11
-46.0968040697347163
 21
383.9875499763472249
 31
0.0
  0
LINE
  5
184
100
AcDbEntity
100
AcDbLine
  8
helper
 62
256
370
-1
  6
ByLayer
 10
-44.1468037068107648
 20
379.765799976347239
 30
0.0
 11
-46.0968037068107677
 21
379.765799976347239
 31
0.0
  0
LINE
  5
185
100
AcDbEntity
100
AcDbLine
  8
helper
 62
256
370
-1
  6
ByLayer
 10
-44.1468037068107648
 20
375.5440499763472531
 30
0.0
 11
-46.0968037068107748
 21
375.5440499763472531
 31
0.0
  0
LINE
  5
186
100
AcDbEntity
100
AcDbLine
  8
helper
 62
256
370
-1
  6
ByLayer
 10
-44.1468037068107719
 20
371.3222999763472671
 30
0.0
 11
-46.0968037068107748
 21
371.3222999763472671
 31
0.0
  0
LINE
  5
187
100
AcDbEntity
100
AcDbLine
  8
helper
 62
256
370
-1
  6
ByLayer
 10
-31.8379938091222812
 20
366.1715608720746786
 30
0.0
 11
-31.8379938091222741
 21
364.2215608720746332
 31
0.0
  0
LINE
  5
188
100
AcDbEntity
100
AcDbLine
  8
helper
 62
256
370
-1
  6
ByLayer
 10
-36.0597438091222742
 20
366.1715608720746786
 30
0.0
 11
-36.0597438091222742
 21
364.22156087207469
 31
0.0
  0
LINE
  5
189
100
AcDbEntity
100
AcDbLine
  8
helper
 62
256
370
-1
  6
ByLayer
 10
-40.3778645227025237
 20
364.2526933212978975
 30
0.0
 11
-40.1849586324579491
 21
366.1931281482139866
 31
0.0
  0
LINE
  5
18A
100
AcDbEntity
100
AcDbLine
  8
helper
 62
256
370
-1
  6
ByLayer
 10
-44.7482293697743003
 20
366.6568916517246066
 30
0.0
 11
-43.2125670551196279
 21
367.8586575421331872
 31
0.0
  0
ARC
  5
18B
100
AcDbEntity
  8
helper
 62
256
370
-1
  6
ByLayer
100
AcDbCircle
 10
60.4188586147084052
 20
390.4899999999999523
 30
0.0
 40
115.1157476416234431
100
AcDbArc
 50
172.2535080078721421
 51
173.2240711696932749
  0
ARC
  5
18C
100
AcDbEntity
  8
helper
 62
256
370
-1
  6
ByLayer
100
AcDbCircle
 10
60.4188586147084052
 20
390.4899999999999523
 30
0.0
 40
115.1157476416234431
100
AcDbArc
 50
174.5525227282269327
 51
175.5230858900491171
  0
ARC
  5
18D
100
AcDbEntity
  8
helper
 62
256
370
-1
  6
ByLayer
100
AcDbCircle
 10
60.4188586147084052
 20
390.4899999999999523
 30
0.0
 40
115.1157476416234431
100
AcDbArc
 50
176.8515374485826044
 51
177.822100610403794
  0
ARC
  5
18E
100
AcDbEntity
  8
helper
 62
256
370
-1
  6
ByLayer
100
AcDbCircle
 10
60.4188586147084052
 20
390.4899999999999523
 30
0.0
 40
115.1157476416234431
100
AcDbArc
 50
179.1505521689381624
 51
180.1211153307603183
  0
ARC
  5
18F
100
AcDbEntity
  8
helper
 62
256
370
-1
  6
ByLayer
100
AcDbCircle
 10
60.4188586147084052
 20
390.4899999999999523
 30
0.0
 40
115.1157476416234431
100
AcDbArc
 50
181.4495668892928393
 51
182.4201300511142563
  0
ARC
  5
190
100
AcDbEntity
  8
helper
 62
256
370
-1
  6
ByLayer
100
AcDbCircle
 10
60.4188586147084052
 20
390.4899999999999523
 30
0.0
 40
115.1157476416234431
100
AcDbArc
 50
183.7485816096483688
 51
184.7191447714696437
  0
ARC
  5
191
100
AcDbEntity
  8
helper
 62
256
370
-1
  6
ByLayer
100
AcDbCircle
 10
60.4188586147084052
 20
390.4899999999999523
 30
0.0
 40
115.1157476416234431
100
AcDbArc
 50
186.0475963300035858
 51
187.0181594918248038
  0
ARC
  5
192
100
AcDbEntity
  8
helper
 62
256
370
-1
  6
ByLayer
100
AcDbCircle
 10
60.4188586147084052
 20
390.4899999999999523
 30
0.0
 40
115.1157476416234431
100
AcDbArc
 50
188.346611050358888
 51
189.3171742121801344
  0
ARC
  5
193
100
AcDbEntity
  8
helper
 62
256
370
-1
  6
ByLayer
100
AcDbCircle
 10
60.4188586147084052
 20
390.4899999999999523
 30
0.0
 40
115.1157476416234431
100
AcDbArc
 50
190.6456257707141617
 51
191.6161889325354366
  0
LINE
  5
194
100
AcDbEntity
100
AcDbLine
  8
helper
 62
256
370
-1
  6
ByLayer
 10
-45.1218037068107662
 20
372.297299976347233
 30
0.0
 11
-45.1218037068107662
 21
370.3472999763472444
 31
0.0
  0
ARC
  5
195
100
AcDbEntity
  8
helper
 62
256
370
-1
  6
ByLayer
100
AcDbCircle
 10
-39.7500000000000284
 20
370.5683645788854506
 30
0.0
 40
5.3718037068107263
100
AcDbArc
 50
207.63202867578255
 51
228.4594282509346499
  0
LINE
  5
196
100
AcDbEntity
100
AcDbLine
  8
helper
 62
256
370
-1
  6
ByLayer
 10
-45.1218037068107662
 20
376.5190499763472189
 30
0.0
 11
-45.1218037068107662
 21
374.5690499763472303
 31
0.0
  0
LINE
  5
197
100
AcDbEntity
100
AcDbLine
  8
helper
 62
256
370
-1
  6
ByLayer
 10
-45.1218037068107662
 20
380.7407999763472048
 30
0.0
 11
-45.1218037068107662
 21
378.7907999763472162
 31
0.0
  0
LINE
  5
198
100
AcDbEntity
100
AcDbLine
  8
helper
 62
256
370
-1
  6
ByLayer
 10
-45.1218037068107662
 20
384.9625499763471339
 30
0.0
 11
-45.1218037068107662
 21
383.012549976347259
 31
0.0
  0
ARC
  5
199
100
AcDbEntity
  8
helper
 62
256
370
-1
  6
ByLayer
100
AcDbCircle
 10
60.4188586147084052
 20
390.4899999999999523
 30
0.0
 40
115.1157476416234431
100
AcDbArc
 50
192.9446404910694355
 51
193.9152036528906535
  0
ARC
  5
19A
100
AcDbEntity
  8
helper
 62
256
370
-1
  6
ByLayer
100
AcDbCircle
 10
60.4188586147084052
 20
390.4899999999999523
 30
0.0
 40
115.1157476416234431
100
AcDbArc
 50
195.2436552114246524
 51
196.2142183732459273
  0
ARC
  5
19B
100
AcDbEntity
  8
helper
 62
256
370
-1
  6
ByLayer
100
AcDbCircle
 10
60.4188586147084052
 20
390.4899999999999523
 30
0.0
 40
115.1157476416234431
100
AcDbArc
 50
197.5426699317795283
 51
198.5132330936016558
  0
ARC
  5
19C
100
AcDbEntity
  8
helper
 62
256
370
-1
  6
ByLayer
100
AcDbCircle
 10
60.4188586147084052
 20
390.4899999999999523
 30
0.0
 40
115.1157476416234431
100
AcDbArc
 50
199.8416846521347452
 51
200.8122478139569296
  0
ARC
  5
19D
100
AcDbEntity
  8
helper
 62
256
370
-1
  6
ByLayer
100
AcDbCircle
 10
60.4188586147084052
 20
390.4899999999999523
 30
0.0
 40
115.1157476416234431
100
AcDbArc
 50
202.1406993724900758
 51
203.1112625343121749
  0
ARC
  5
19E
100
AcDbEntity
  8
helper
 62
256
370
-1
  6
ByLayer
100
AcDbCircle
 10
60.4188586147084052
 20
390.4899999999999523
 30
0.0
 40
115.1157476416234431
100
AcDbArc
 50
204.4397140928456906
 51
205.4102772546671076
  0
ARC
  5
19F
100
AcDbEntity
  8
helper
 62
256
370
-1
  6
ByLayer
100
AcDbCircle
 10
60.4188586147084052
 20
390.4899999999999523
 30
0.0
 40
115.1157476416234431
100
AcDbArc
 50
209.0377435335558687
 51
210.0083066953774562
  0
ARC
  5
1A0
100
AcDbEntity
  8
helper
 62
256
370
-1
  6
ByLayer
100
AcDbCircle
 10
60.4188586147084052
 20
390.4899999999999523
 30
0.0
 40
115.1157476416234431
100
AcDbArc
 50
206.7387288132004812
 51
207.7092919750228646
  0
ARC
  5
1A1
100
AcDbEntity
  8
helper
 62
256
370
-1
  6
ByLayer
100
AcDbCircle
 10
-139.9188586147084266
 20
390.4900000000000091
 30
0.0
 40
115.1157476416234431
100
AcDbArc
 50
329.9916933046218901
 51
330.9622564664441029
  0
ARC
  5
1A2
100
AcDbEntity
  8
helper
 62
256
370
-1
  6
ByLayer
100
AcDbCircle
 10
-139.9188586147084266
 20
390.4900000000000091
 30
0.0
 40
115.1157476416234431
100
AcDbArc
 50
332.095484765988374
 51
333.0660479278108141
  0
ARC
  5
1A3
100
AcDbEntity
  8
helper
 62
256
370
-1
  6
ByLayer
100
AcDbCircle
 10
-139.9188586147084266
 20
390.4900000000000091
 30
0.0
 40
115.1157476416234431
100
AcDbArc
 50
334.1992762273549715
 51
335.1698393891773549
  0
ARC
  5
1A4
100
AcDbEntity
  8
helper
 62
256
370
-1
  6
ByLayer
100
AcDbCircle
 10
-139.9188586147084266
 20
390.4900000000000091
 30
0.0
 40
115.1157476416234431
100
AcDbArc
 50
336.3030676887220807
 51
337.273630850543384
  0
ARC
  5
1A5
100
AcDbEntity
  8
helper
 62
256
370
-1
  6
ByLayer
100
AcDbCircle
 10
-139.9188586147084266
 20
390.4900000000000091
 30
0.0
 40
115.1157476416234431
100
AcDbArc
 50
338.4068591500881666
 51
339.3774223119103226
  0
ARC
  5
1A6
100
AcDbEntity
  8
helper
 62
256
370
-1
  6
ByLayer
100
AcDbCircle
 10
-139.9188586147084266
 20
390.4900000000000091
 30
0.0
 40
115.1157476416234431
100
AcDbArc
 50
340.5106506114546505
 51
341.481213773276977
  0
ARC
  5
1A7
100
AcDbEntity
  8
helper
 62
256
370
-1
  6
ByLayer
100
AcDbCircle
 10
-139.9188586147084266
 20
390.4900000000000091
 30
0.0
 40
115.1157476416234431
100
AcDbArc
 50
342.6144420728213618
 51
343.5850052346434609
  0
ARC
  5
1A8
100
AcDbEntity
  8
helper
 62
7
370
15
  6
CONTINUOUS
100
AcDbCircle
 10
-36.0597438091222742
 20
365.1965608720747127
 30
0.0
 40
0.975
100
AcDbArc
 50
180.0
 51
180.0
  0
LINE
  5
1A9
100
AcDbEntity
100
AcDbLine
  8
helper
 62
256
370
-1
  6
ByLayer
 10
-26.6412438091222796
 20
365.1965608720746559
 30
0.0
 11
-28.5912438091222754
 21
365.1965608720746559
 31
0.0
  0
LINE
  5
1AA
100
AcDbEntity
100
AcDbLine
  8
helper
 62
256
370
-1
  6
ByLayer
 10
-35.0847438091222799
 20
365.1965608720747127
 30
0.0
 11
-37.0347438091222756
 21
365.1965608720747127
 31
0.0
  0
LINE
  5
1AB
100
AcDbEntity
100
AcDbLine
  8
helper
 62
256
370
-1
  6
ByLayer
 10
-30.8629938091222726
 20
365.1965608720747127
 30
0.0
 11
-32.8129938091222755
 21
365.1965608720747127
 31
0.0
  0
LINE
  5
1AC
100
AcDbEntity
100
AcDbLine
  8
helper
 62
256
370
-1
  6
ByLayer
 10
-45.1218037068107662
 20
389.1842999763471767
 30
0.0
 11
-45.1218037068107662
 21
387.234299976347188
 31
0.0
  0
LINE
  5
1AD
100
AcDbEntity
100
AcDbLine
  8
helper
 62
256
370
-1
  6
ByLayer
 10
-45.1218037068107662
 20
393.4060499763471057
 30
0.0
 11
-45.1218037068107662
 21
391.4560499763472308
 31
0.0
  0
LINE
  5
1AE
100
AcDbEntity
100
AcDbLine
  8
helper
 62
256
370
-1
  6
ByLayer
 10
-45.1218037068107733
 20
397.6277999763471485
 30
0.0
 11
-45.1218037068107733
 21
395.6777999763471598
 31
0.0
  0
ARC
  5
1AF
100
AcDbEntity
  8
helper
 62
7
370
15
  6
CONTINUOUS
100
AcDbCircle
 10
-45.1218037068107662
 20
405.039831714303773
 30
0.0
 40
0.975
100
AcDbArc
 50
270.0
 51
270.0
  0
LINE
  5
1B0
100
AcDbEntity
100
AcDbLine
  8
helper
 62
256
370
-1
  6
ByLayer
 10
-45.1218037068107662
 20
401.8495499763471344
 30
0.0
 11
-45.1218037068107662
 21
399.8995499763471457
 31
0.0
  0
LINE
  5
1B1
100
AcDbEntity
100
AcDbLine
  8
helper
 62
256
370
-1
  6
ByLayer
 10
-45.1218037068107662
 20
406.0148317143037957
 30
0.0
 11
-45.1218037068107662
 21
404.0648317143037502
 31
0.0
  0
LINE
  5
1B2
100
AcDbEntity
100
AcDbLine
  8
helper
 62
256
370
-1
  6
ByLayer
 10
-44.1468037068107577
 20
405.039831714303773
 30
0.0
 11
-46.0968037068107677
 21
405.039831714303773
 31
0.0
  0
LINE
  5
1B3
100
AcDbEntity
100
AcDbLine
  8
helper
 62
256
370
-1
  6
ByLayer
 10
-48.4727459624821719
 20
405.039831714303773
 30
0.0
 11
-50.4227459624821677
 21
405.039831714303773
 31
0.0
  0
LINE
  5
1B4
100
AcDbEntity
100
AcDbLine
  8
helper
 62
256
370
-1
  6
ByLayer
 10
-52.7986882181535435
 20
405.039831714303773
 30
0.0
 11
-54.7486882181535677
 21
405.039831714303773
 31
0.0
  0
CIRCLE
  5
1B5
100
AcDbEntity
100
AcDbCircle
  8
helper
 62
256
370
-1
  6
ByLayer
 10
-39.7500000000000071
 20
447.2159651210666311
 30
0.0
 40
0.975
  0
CIRCLE
  5
1B6
100
AcDbEntity
100
AcDbCircle
  8
helper
 62
256
370
-1
  6
ByLayer
 10
-43.6420171791478353
 20
439.7136679261667496
 30
0.0
 40
0.975
  0
CIRCLE
  5
1B7
100
AcDbEntity
100
AcDbCircle
  8
helper
 62
256
370
-1
  6
ByLayer
 10
-46.9730995428981615
 20
431.9460330731825479
 30
0.0
 40
0.975
  0
CIRCLE
  5
1B8
100
AcDbEntity
100
AcDbCircle
  8
helper
 62
256
370
-1
  6
ByLayer
 10
-49.7252910625654891
 20
423.9549315995147367
 30
0.0
 40
0.975
  0
CIRCLE
  5
1B9
100
AcDbEntity
100
AcDbCircle
  8
helper
 62
256
370
-1
  6
ByLayer
 10
-30.0522540375178764
 20
375.9401682856961315
 30
0.0
 40
0.975
  0
CIRCLE
  5
1BA
100
AcDbEntity
100
AcDbCircle
  8
helper
 62
256
370
-1
  6
ByLayer
 10
-25.7263117818465084
 20
375.9401682856960747
 30
0.0
 40
0.975
  0
CIRCLE
  5
1BB
100
AcDbEntity
100
AcDbCircle
  8
helper
 62
256
370
-1
  6
ByLayer
 10
-35.524963131641961
 20
439.0033996021769553
 30
0.0
 40
0.975
  0
CIRCLE
  5
1BC
100
AcDbEntity
100
AcDbCircle
  8
helper
 62
256
370
-1
  6
ByLayer
 10
-31.9718813466247127
 20
430.478566538121072
 30
0.0
 40
0.975
  0
CIRCLE
  5
1BD
100
AcDbEntity
100
AcDbCircle
  8
helper
 62
256
370
-1
  6
ByLayer
 10
-26.9685915057118777
 20
412.7132426773468978
 30
0.0
 40
0.975
  0
CIRCLE
  5
1BE
100
AcDbEntity
100
AcDbCircle
  8
helper
 62
256
370
-1
  6
ByLayer
 10
-29.1136248650500491
 20
421.6963379583938263
 30
0.0
 40
0.975
  0
CIRCLE
  5
1BF
100
AcDbEntity
100
AcDbCircle
  8
helper
 62
256
370
-1
  6
ByLayer
 10
-25.5505882643455848
 20
403.5871024336009896
 30
0.0
 40
0.975
  0
CIRCLE
  5
1C0
100
AcDbEntity
100
AcDbCircle
  8
helper
 62
256
370
-1
  6
ByLayer
 10
-24.8687424417557494
 20
394.3766597072572608
 30
0.0
 40
0.975
  0
CIRCLE
  5
1C1
100
AcDbEntity
100
AcDbCircle
  8
helper
 62
256
370
-1
  6
ByLayer
 10
-24.9274428938656172
 20
385.1411996105451294
 30
0.0
 40
0.975
  0
CIRCLE
  5
1C2
100
AcDbEntity
100
AcDbCircle
  8
helper
 62
256
370
-1
  6
ByLayer
 10
-41.764883829715501
 20
443.5005473952264765
 30
0.0
 40
0.975
  0
CIRCLE
  5
1C3
100
AcDbEntity
100
AcDbCircle
  8
helper
 62
256
370
-1
  6
ByLayer
 10
-45.3788695477079642
 20
435.860431679248677
 30
0.0
 40
0.975
  0
CIRCLE
  5
1C4
100
AcDbEntity
100
AcDbCircle
  8
helper
 62
256
370
-1
  6
ByLayer
 10
-48.4225580366646682
 20
427.975748977606429
 30
0.0
 40
0.975
  0
CIRCLE
  5
1C5
100
AcDbEntity
100
AcDbCircle
  8
helper
 62
256
370
-1
  6
ByLayer
 10
-50.8795424498467597
 20
419.8890012681272879
 30
0.0
 40
0.975
  0
CIRCLE
  5
1C6
100
AcDbEntity
100
AcDbCircle
  8
helper
 62
256
370
-1
  6
ByLayer
 10
-25.2345662407538391
 20
380.5326691440310469
 30
0.0
 40
0.975
  0
CIRCLE
  5
1C7
100
AcDbEntity
100
AcDbCircle
  8
helper
 62
256
370
-1
  6
ByLayer
 10
-24.8054361575052731
 20
389.7583407354490532
 30
0.0
 40
0.975
  0
CIRCLE
  5
1C8
100
AcDbEntity
100
AcDbCircle
  8
helper
 62
256
370
-1
  6
ByLayer
 10
-25.1172598342725983
 20
398.9887218183536106
 30
0.0
 40
0.975
  0
CIRCLE
  5
1C9
100
AcDbEntity
100
AcDbCircle
  8
helper
 62
256
370
-1
  6
ByLayer
 10
-26.1680301469444068
 20
408.1643989427433894
 30
0.0
 40
0.975
  0
CIRCLE
  5
1CA
100
AcDbEntity
100
AcDbCircle
  8
helper
 62
256
370
-1
  6
ByLayer
 10
-27.9509835730967104
 20
417.22631077310308
 30
0.0
 40
0.975
  0
CIRCLE
  5
1CB
100
AcDbEntity
100
AcDbCircle
  8
helper
 62
256
370
-1
  6
ByLayer
 10
-30.4546437269455232
 20
426.1161282501422534
 30
0.0
 40
0.975
  0
CIRCLE
  5
1CC
100
AcDbEntity
100
AcDbCircle
  8
helper
 62
256
370
-1
  6
ByLayer
 10
-33.662895229717428
 20
434.7766300390690049
 30
0.0
 40
0.975
  0
CIRCLE
  5
1CD
100
AcDbEntity
100
AcDbCircle
  8
helper
 62
256
370
-1
  6
ByLayer
 10
-37.5550874399554289
 20
443.1520708477431754
 30
0.0
 40
0.975
  0
CIRCLE
  5
1CE
100
AcDbEntity
100
AcDbCircle
  8
helper
 62
256
370
-1
  6
ByLayer
 10
-51.8837561908777971
 20
415.7834391279252486
 30
0.0
 40
0.975
  0
CIRCLE
  5
1CF
100
AcDbEntity
100
AcDbCircle
  8
helper
 62
256
370
-1
  6
ByLayer
 10
-47.6620061908777757
 20
415.7834391279252486
 30
0.0
 40
0.975
  0
CIRCLE
  5
1D0
100
AcDbEntity
100
AcDbCircle
  8
helper
 62
256
370
-1
  6
ByLayer
 10
-39.2185884224198134
 20
415.7570892652439625
 30
0.0
 40
0.975
  0
CIRCLE
  5
1D1
100
AcDbEntity
100
AcDbCircle
  8
helper
 62
256
370
-1
  6
ByLayer
 10
-35.5196017875530785
 20
413.7222254030709792
 30
0.0
 40
0.975
  0
CIRCLE
  5
1D2
100
AcDbEntity
100
AcDbCircle
  8
helper
 62
256
370
-1
  6
ByLayer
 10
-34.3781962931892835
 20
409.6577000236526374
 30
0.0
 40
0.975
  0
CIRCLE
  5
1D3
100
AcDbEntity
100
AcDbCircle
  8
helper
 62
256
370
-1
  6
ByLayer
 10
-34.3781962931892835
 20
405.4359500236526515
 30
0.0
 40
0.975
  0
CIRCLE
  5
1D4
100
AcDbEntity
100
AcDbCircle
  8
helper
 62
256
370
-1
  6
ByLayer
 10
-34.3781962931892764
 20
401.2142000236526655
 30
0.0
 40
0.975
  0
CIRCLE
  5
1D5
100
AcDbEntity
100
AcDbCircle
  8
helper
 62
256
370
-1
  6
ByLayer
 10
-34.3781959302653348
 20
396.9924500236526796
 30
0.0
 40
0.975
  0
CIRCLE
  5
1D6
100
AcDbEntity
100
AcDbCircle
  8
helper
 62
256
370
-1
  6
ByLayer
 10
-34.3781962931892906
 20
392.7707000236526937
 30
0.0
 40
0.975
  0
CIRCLE
  5
1D7
100
AcDbEntity
100
AcDbCircle
  8
helper
 62
256
370
-1
  6
ByLayer
 10
-34.3781959302653348
 20
388.5489500236527078
 30
0.0
 40
0.975
  0
CIRCLE
  5
1D8
100
AcDbEntity
100
AcDbCircle
  8
helper
 62
256
370
-1
  6
ByLayer
 10
-34.3781962931892906
 20
384.3272000236527219
 30
0.0
 40
0.975
  0
CIRCLE
  5
1D9
100
AcDbEntity
100
AcDbCircle
  8
helper
 62
256
370
-1
  6
ByLayer
 10
-34.3781962931892977
 20
380.105450023652736
 30
0.0
 40
0.975
  0
LINE
  5
1DA
100
AcDbEntity
100
AcDbLine
  8
helper
 62
256
370
-1
  6
ByLayer
 10
-42.630353158842226
 20
443.9495327405786611
 30
0.0
 11
-40.8994145005888399
 21
443.0515620498743488
 31
0.0
  0
LINE
  5
1DB
100
AcDbEntity
100
AcDbLine
  8
helper
 62
256
370
-1
  6
ByLayer
 10
-44.5233853323119959
 20
440.1305794018878714
 30
0.0
 11
-42.7606490259836534
 21
439.2967564504456277
 31
0.0
  0
LINE
  5
1DC
100
AcDbEntity
100
AcDbLine
  8
helper
 62
256
370
-1
  6
ByLayer
 10
-46.2749483820259968
 20
436.2447072609438692
 30
0.0
 11
-44.482790713389889
 21
435.476156097553428
 31
0.0
  0
LINE
  5
1DD
100
AcDbEntity
100
AcDbLine
  8
helper
 62
256
370
-1
  6
ByLayer
 10
-47.8826810845099402
 20
432.2971547318124976
 30
0.0
 11
-46.0635180012862833
 21
431.5949114145525982
 31
0.0
  0
LINE
  5
1DE
100
AcDbEntity
100
AcDbLine
  8
helper
 62
256
370
-1
  6
ByLayer
 10
-49.3444161091628359
 20
428.2932433778248082
 30
0.0
 11
-47.5006999641665573
 21
427.6582545773881066
 31
0.0
  0
LINE
  5
1DF
100
AcDbEntity
100
AcDbLine
  8
helper
 62
256
370
-1
  6
ByLayer
 10
-50.65818293996238
 20
424.2383707377558721
 30
0.0
 11
-48.7923991851685912
 21
423.6714924612736013
 31
0.0
  0
LINE
  5
1E0
100
AcDbEntity
100
AcDbLine
  8
helper
 62
256
370
-1
  6
ByLayer
 10
-51.822210531852086
 20
420.1380030495834603
 30
0.0
 11
-49.9368743678413765
 21
419.6399994866711154
 31
0.0
  0
LINE
  5
1E1
100
AcDbEntity
100
AcDbLine
  8
helper
 62
256
370
-1
  6
ByLayer
 10
-36.6880933149979072
 20
443.5981046887116008
 30
0.0
 11
-38.4220815649129861
 21
442.7060370067746931
 31
0.0
  0
LINE
  5
1E2
100
AcDbEntity
100
AcDbLine
  8
helper
 62
256
370
-1
  6
ByLayer
 10
-34.6407743896041183
 20
439.414295292655197
 30
0.0
 11
-36.4091518736797539
 21
438.5925039116987136
 31
0.0
  0
LINE
  5
1E3
100
AcDbEntity
100
AcDbLine
  8
helper
 62
256
370
-1
  6
ByLayer
 10
-32.7629352640063018
 20
435.1517261069199662
 30
0.0
 11
-34.5628551954285612
 21
434.4015339712180435
 31
0.0
  0
LINE
  5
1E4
100
AcDbEntity
100
AcDbLine
  8
helper
 62
256
370
-1
  6
ByLayer
 10
-31.0575989396334577
 20
430.817259142507794
 30
0.0
 11
-32.886163753615989
 21
430.1398739337342931
 31
0.0
  0
LINE
  5
1E5
100
AcDbEntity
100
AcDbLine
  8
helper
 62
256
370
-1
  6
ByLayer
 10
-29.5275107177604639
 20
426.4178721536090961
 30
0.0
 11
-31.3817767361306039
 21
425.8143843466754106
 31
0.0
  0
LINE
  5
1E6
100
AcDbEntity
100
AcDbLine
  8
helper
 62
256
370
-1
  6
ByLayer
 10
-28.1751337800401451
 20
421.9606474046057656
 30
0.0
 11
-30.0521159500599921
 21
421.4320285121818301
 31
0.0
  0
LINE
  5
1E7
100
AcDbEntity
100
AcDbLine
  8
helper
 62
256
370
-1
  6
ByLayer
 10
-27.0026452232001262
 20
417.4527602688309003
 30
0.0
 11
-28.8993219229933338
 21
416.9998612773752598
 31
0.0
  0
LINE
  5
1E8
100
AcDbEntity
100
AcDbLine
  8
helper
 62
256
370
-1
  6
ByLayer
 10
-26.0119325542874833
 20
412.9014676774387453
 30
0.0
 11
-27.9252504571362934
 21
412.5250176772551072
 31
0.0
  0
LINE
  5
1E9
100
AcDbEntity
100
AcDbLine
  8
helper
 62
256
370
-1
  6
ByLayer
 10
-25.204590652103569
 20
408.3140964369804351
 30
0.0
 11
-27.1314696417852232
 21
408.0147014485063437
 31
0.0
  0
LINE
  5
1EA
100
AcDbEntity
100
AcDbLine
  8
helper
 62
256
370
-1
  6
ByLayer
 10
-24.581919199720712
 20
403.6980314344924636
 30
0.0
 11
-26.5192573289704541
 21
403.4761734327094587
 31
0.0
  0
LINE
  5
1EB
100
AcDbEntity
100
AcDbLine
  8
helper
 62
256
370
-1
  6
ByLayer
 10
-24.1449205922134809
 20
399.0607037490855191
 30
0.0
 11
-26.0895990763317194
 21
398.9167398876216453
 31
0.0
  0
LINE
  5
1EC
100
AcDbEntity
100
AcDbLine
  8
helper
 62
256
370
-1
  6
ByLayer
 10
-23.8942983229732633
 20
394.4095786891708144
 30
0.0
 11
-25.8431865605382356
 21
394.3437407253437073
 31
0.0
  0
LINE
  5
1ED
100
AcDbEntity
100
AcDbLine
  8
helper
 62
256
370
-1
  6
ByLayer
 10
-23.8304558512036273
 20
389.7521437745853063
 30
0.0
 11
-25.7804164638069224
 21
389.764537696312857
 31
0.0
  0
LINE
  5
1EE
100
AcDbEntity
100
AcDbLine
  8
helper
 62
256
370
-1
  6
ByLayer
 10
-23.9534959524196829
 20
385.0958966829564361
 30
0.0
 11
-25.901389835311555
 21
385.1865025381337659
 31
0.0
  0
LINE
  5
1EF
100
AcDbEntity
100
AcDbLine
  8
helper
 62
256
370
-1
  6
ByLayer
 10
-24.263220552996934
 20
380.4483331797214873
 30
0.0
 11
-26.2059119285107656
 21
380.6170051083406065
 31
0.0
  0
LINE
  5
1F0
100
AcDbEntity
100
AcDbLine
  8
helper
 62
256
370
-1
  6
ByLayer
 10
-30.0522540375178906
 20
374.9651682856961088
 30
0.0
 11
-30.0522540375178906
 21
376.9151682856960974
 31
0.0
  0
LINE
  5
1F1
100
AcDbEntity
100
AcDbLine
  8
helper
 62
256
370
-1
  6
ByLayer
 10
-35.3531962931892849
 20
384.3272000236527219
 30
0.0
 11
-33.4031962931892963
 21
384.3272000236527219
 31
0.0
  0
LINE
  5
1F2
100
AcDbEntity
100
AcDbLine
  8
helper
 62
256
370
-1
  6
ByLayer
 10
-35.3531962931892849
 20
380.105450023652736
 30
0.0
 11
-33.4031962931892821
 21
380.105450023652736
 31
0.0
  0
LINE
  5
1F3
100
AcDbEntity
100
AcDbLine
  8
helper
 62
256
370
-1
  6
ByLayer
 10
-35.3531959302653362
 20
388.5489500236527078
 30
0.0
 11
-33.4031959302653405
 21
388.5489500236527078
 31
0.0
  0
LINE
  5
1F4
100
AcDbEntity
100
AcDbLine
  8
helper
 62
256
370
-1
  6
ByLayer
 10
-35.3531962931892849
 20
392.7707000236526937
 30
0.0
 11
-33.4031962931892892
 21
392.7707000236526937
 31
0.0
  0
LINE
  5
1F5
100
AcDbEntity
100
AcDbLine
  8
helper
 62
256
370
-1
  6
ByLayer
 10
-35.3531959302653362
 20
396.9924500236526796
 30
0.0
 11
-33.4031959302653334
 21
396.9924500236526796
 31
0.0
  0
LINE
  5
1F6
100
AcDbEntity
100
AcDbLine
  8
helper
 62
256
370
-1
  6
ByLayer
 10
-35.3531962931892849
 20
401.2142000236526655
 30
0.0
 11
-33.4031962931892892
 21
401.2142000236526655
 31
0.0
  0
LINE
  5
1F7
100
AcDbEntity
100
AcDbLine
  8
helper
 62
256
370
-1
  6
ByLayer
 10
-35.3531962931892849
 20
405.4359500236526515
 30
0.0
 11
-33.403196293189275
 21
405.4359500236526515
 31
0.0
  0
LINE
  5
1F8
100
AcDbEntity
100
AcDbLine
  8
helper
 62
256
370
-1
  6
ByLayer
 10
-35.3531962931892778
 20
409.6577000236526374
 30
0.0
 11
-33.403196293189275
 21
409.6577000236526374
 31
0.0
  0
LINE
  5
1F9
100
AcDbEntity
100
AcDbLine
  8
helper
 62
256
370
-1
  6
ByLayer
 10
-47.6620061908777473
 20
414.8084391279252259
 30
0.0
 11
-47.6620061908777473
 21
416.7584391279252145
 31
0.0
  0
LINE
  5
1FA
100
AcDbEntity
100
AcDbLine
  8
helper
 62
256
370
-1
  6
ByLayer
 10
-43.4402561908777756
 20
414.808439127925169
 30
0.0
 11
-43.4402561908777756
 21
416.7584391279251577
 31
0.0
  0
LINE
  5
1FB
100
AcDbEntity
100
AcDbLine
  8
helper
 62
256
370
-1
  6
ByLayer
 10
-39.1221354772975261
 20
416.727306678702007
 30
0.0
 11
-39.3150413675420936
 21
414.7868718517859179
 31
0.0
  0
LINE
  5
1FC
100
AcDbEntity
100
AcDbLine
  8
helper
 62
256
370
-1
  6
ByLayer
 10
-34.7517706302257494
 20
414.323108348275241
 30
0.0
 11
-36.2874329448804218
 21
413.1213424578667173
 31
0.0
  0
ARC
  5
1FD
100
AcDbEntity
  8
helper
 62
256
370
-1
  6
ByLayer
100
AcDbCircle
 10
-139.9188586147084266
 20
390.4899999999999523
 30
0.0
 40
115.1157476416234431
100
AcDbArc
 50
352.2535080078721421
 51
353.2240711696932749
  0
ARC
  5
1FE
100
AcDbEntity
  8
helper
 62
256
370
-1
  6
ByLayer
100
AcDbCircle
 10
-139.9188586147084266
 20
390.4899999999999523
 30
0.0
 40
115.1157476416234431
100
AcDbArc
 50
354.5525227282269611
 51
355.5230858900491171
  0
ARC
  5
1FF
100
AcDbEntity
  8
helper
 62
256
370
-1
  6
ByLayer
100
AcDbCircle
 10
-139.9188586147084266
 20
390.4899999999999523
 30
0.0
 40
115.1157476416234431
100
AcDbArc
 50
356.851537448582576
 51
357.8221006104038224
  0
ARC
  5
200
100
AcDbEntity
  8
helper
 62
256
370
-1
  6
ByLayer
100
AcDbCircle
 10
-139.9188586147084266
 20
390.4899999999999523
 30
0.0
 40
115.1157476416234431
100
AcDbArc
 50
359.1505521689381908
 51
0.1211153307603331
  0
ARC
  5
201
100
AcDbEntity
  8
helper
 62
256
370
-1
  6
ByLayer
100
AcDbCircle
 10
-139.9188586147084266
 20
390.4899999999999523
 30
0.0
 40
115.1157476416234431
100
AcDbArc
 50
1.4495668892928344
 51
2.4201300511142181
  0
ARC
  5
202
100
AcDbEntity
  8
helper
 62
256
370
-1
  6
ByLayer
100
AcDbCircle
 10
-139.9188586147084266
 20
390.4899999999999523
 30
0.0
 40
115.1157476416234431
100
AcDbArc
 50
3.7485816096483986
 51
4.7191447714696295
  0
ARC
  5
203
100
AcDbEntity
  8
helper
 62
256
370
-1
  6
ByLayer
100
AcDbCircle
 10
-139.9188586147084266
 20
390.4899999999999523
 30
0.0
 40
115.1157476416234431
100
AcDbArc
 50
6.0475963300036071
 51
7.0181594918248376
  0
ARC
  5
204
100
AcDbEntity
  8
helper
 62
256
370
-1
  6
ByLayer
100
AcDbCircle
 10
-139.9188586147084266
 20
390.4899999999999523
 30
0.0
 40
115.1157476416234431
100
AcDbArc
 50
8.3466110503589164
 51
9.3171742121801469
  0
ARC
  5
205
100
AcDbEntity
  8
helper
 62
256
370
-1
  6
ByLayer
100
AcDbCircle
 10
-139.9188586147084266
 20
390.4899999999999523
 30
0.0
 40
115.1157476416234431
100
AcDbArc
 50
10.6456257707141759
 51
11.6161889325354579
  0
LINE
  5
206
100
AcDbEntity
100
AcDbLine
  8
helper
 62
256
370
-1
  6
ByLayer
 10
-34.3781962931892835
 20
408.6827000236526146
 30
0.0
 11
-34.3781962931892835
 21
410.6327000236526032
 31
0.0
  0
ARC
  5
207
100
AcDbEntity
  8
helper
 62
256
370
-1
  6
ByLayer
100
AcDbCircle
 10
-39.7500000000000213
 20
410.4116354211143971
 30
0.0
 40
5.3718037068107263
100
AcDbArc
 50
27.632028675782518
 51
48.4594282509346854
  0
LINE
  5
208
100
AcDbEntity
100
AcDbLine
  8
helper
 62
256
370
-1
  6
ByLayer
 10
-34.3781962931892906
 20
404.4609500236526287
 30
0.0
 11
-34.3781962931892835
 21
406.4109500236526173
 31
0.0
  0
LINE
  5
209
100
AcDbEntity
100
AcDbLine
  8
helper
 62
256
370
-1
  6
ByLayer
 10
-34.3781962931892906
 20
400.2392000236526428
 30
0.0
 11
-34.3781962931892906
 21
402.1892000236526314
 31
0.0
  0
LINE
  5
20A
100
AcDbEntity
100
AcDbLine
  8
helper
 62
256
370
-1
  6
ByLayer
 10
-34.3781962931892835
 20
396.0174500236527138
 30
0.0
 11
-34.3781962931892835
 21
397.9674500236526455
 31
0.0
  0
ARC
  5
20B
100
AcDbEntity
  8
helper
 62
256
370
-1
  6
ByLayer
100
AcDbCircle
 10
-139.9188586147084266
 20
390.4899999999999523
 30
0.0
 40
115.1157476416234431
100
AcDbArc
 50
12.9446404910694355
 51
13.915203652890666
  0
ARC
  5
20C
100
AcDbEntity
  8
helper
 62
256
370
-1
  6
ByLayer
100
AcDbCircle
 10
-139.9188586147084266
 20
390.4899999999999523
 30
0.0
 40
115.1157476416234431
100
AcDbArc
 50
15.2436552114246435
 51
16.2142183732459237
  0
ARC
  5
20D
100
AcDbEntity
  8
helper
 62
256
370
-1
  6
ByLayer
100
AcDbCircle
 10
-139.9188586147084266
 20
390.4899999999999523
 30
0.0
 40
115.1157476416234431
100
AcDbArc
 50
17.542669931779546
 51
18.5132330936016913
  0
ARC
  5
20E
100
AcDbEntity
  8
helper
 62
256
370
-1
  6
ByLayer
100
AcDbCircle
 10
-139.9188586147084266
 20
390.4899999999999523
 30
0.0
 40
115.1157476416234431
100
AcDbArc
 50
19.8416846521347523
 51
20.8122478139569012
  0
ARC
  5
20F
100
AcDbEntity
  8
helper
 62
256
370
-1
  6
ByLayer
100
AcDbCircle
 10
-139.9188586147084266
 20
390.4899999999999523
 30
0.0
 40
115.1157476416234431
100
AcDbArc
 50
22.1406993724900651
 51
23.1112625343122104
  0
ARC
  5
210
100
AcDbEntity
  8
helper
 62
256
370
-1
  6
ByLayer
100
AcDbCircle
 10
-139.9188586147084266
 20
390.4899999999999523
 30
0.0
 40
115.1157476416234431
100
AcDbArc
 50
24.43971409284568
 51
25.4102772546671147
  0
ARC
  5
211
100
AcDbEntity
  8
helper
 62
256
370
-1
  6
ByLayer
100
AcDbCircle
 10
-139.9188586147084266
 20
390.4899999999999523
 30
0.0
 40
115.1157476416234431
100
AcDbArc
 50
29.03774353355589
 51
30.0083066953774278
  0
ARC
  5
212
100
AcDbEntity
  8
helper
 62
256
370
-1
  6
ByLayer
100
AcDbCircle
 10
-139.9188586147084266
 20
390.4899999999999523
 30
0.0
 40
115.1157476416234431
100
AcDbArc
 50
26.7387288132004812
 51
27.709291975022829
  0
ARC
  5
213
100
AcDbEntity
  8
helper
 62
256
370
-1
  6
ByLayer
100
AcDbCircle
 10
60.418858614708391
 20
390.4899999999999523
 30
0.0
 40
115.1157476416234431
100
AcDbArc
 50
149.9916933046218617
 51
150.9622564664441029
  0
ARC
  5
214
100
AcDbEntity
  8
helper
 62
256
370
-1
  6
ByLayer
100
AcDbCircle
 10
60.418858614708391
 20
390.4899999999999523
 30
0.0
 40
115.1157476416234431
100
AcDbArc
 50
152.095484765988374
 51
153.0660479278108141
  0
ARC
  5
215
100
AcDbEntity
  8
helper
 62
256
370
-1
  6
ByLayer
100
AcDbCircle
 10
60.418858614708391
 20
390.4899999999999523
 30
0.0
 40
115.1157476416234431
100
AcDbArc
 50
154.1992762273549715
 51
155.1698393891773264
  0
ARC
  5
216
100
AcDbEntity
  8
helper
 62
256
370
-1
  6
ByLayer
100
AcDbCircle
 10
60.418858614708391
 20
390.4899999999999523
 30
0.0
 40
115.1157476416234431
100
AcDbArc
 50
156.3030676887220807
 51
157.2736308505432987
  0
ARC
  5
217
100
AcDbEntity
  8
helper
 62
256
370
-1
  6
ByLayer
100
AcDbCircle
 10
60.418858614708391
 20
390.4899999999999523
 30
0.0
 40
115.1157476416234431
100
AcDbArc
 50
158.4068591500881666
 51
159.3774223119103226
  0
ARC
  5
218
100
AcDbEntity
  8
helper
 62
256
370
-1
  6
ByLayer
100
AcDbCircle
 10
60.418858614708391
 20
390.4899999999999523
 30
0.0
 40
115.1157476416234431
100
AcDbArc
 50
160.5106506114546789
 51
161.4812137732769202
  0
ARC
  5
219
100
AcDbEntity
  8
helper
 62
256
370
-1
  6
ByLayer
100
AcDbCircle
 10
60.418858614708391
 20
390.4899999999999523
 30
0.0
 40
115.1157476416234431
100
AcDbArc
 50
162.6144420728212765
 51
163.5850052346435461
  0
ARC
  5
21A
100
AcDbEntity
  8
helper
 62
7
370
15
  6
CONTINUOUS
100
AcDbCircle
 10
-43.4402561908777756
 20
415.7834391279251918
 30
0.0
 40
0.975
100
AcDbArc
 50
360.0
 51
360.0
  0
LINE
  5
21B
100
AcDbEntity
100
AcDbLine
  8
helper
 62
256
370
-1
  6
ByLayer
 10
-52.8587561908777701
 20
415.7834391279252486
 30
0.0
 11
-50.908756190877746
 21
415.7834391279252486
 31
0.0
  0
LINE
  5
21C
100
AcDbEntity
100
AcDbLine
  8
helper
 62
256
370
-1
  6
ByLayer
 10
-44.4152561908777628
 20
415.7834391279251918
 30
0.0
 11
-42.4652561908777599
 21
415.7834391279251918
 31
0.0
  0
LINE
  5
21D
100
AcDbEntity
100
AcDbLine
  8
helper
 62
256
370
-1
  6
ByLayer
 10
-48.6370061908777842
 20
415.7834391279251918
 30
0.0
 11
-46.6870061908777529
 21
415.7834391279251918
 31
0.0
  0
LINE
  5
21E
100
AcDbEntity
100
AcDbLine
  8
helper
 62
256
370
-1
  6
ByLayer
 10
-34.3781962931892906
 20
391.795700023652671
 30
0.0
 11
-34.3781962931892906
 21
393.7457000236527165
 31
0.0
  0
LINE
  5
21F
100
AcDbEntity
100
AcDbLine
  8
helper
 62
256
370
-1
  6
ByLayer
 10
-34.3781962931892906
 20
387.5739500236527419
 30
0.0
 11
-34.3781962931892906
 21
389.5239500236526737
 31
0.0
  0
LINE
  5
220
100
AcDbEntity
100
AcDbLine
  8
helper
 62
256
370
-1
  6
ByLayer
 10
-34.3781962931892906
 20
383.3522000236526992
 30
0.0
 11
-34.3781962931892835
 21
385.3022000236527447
 31
0.0
  0
ARC
  5
221
100
AcDbEntity
  8
helper
 62
7
370
15
  6
CONTINUOUS
100
AcDbCircle
 10
-34.3781962931892977
 20
375.9401682856961315
 30
0.0
 40
0.975
100
AcDbArc
 50
90.0
 51
90.0
  0
LINE
  5
222
100
AcDbEntity
100
AcDbLine
  8
helper
 62
256
370
-1
  6
ByLayer
 10
-34.3781962931892977
 20
379.1304500236527133
 30
0.0
 11
-34.3781962931892977
 21
381.0804500236527588
 31
0.0
  0
LINE
  5
223
100
AcDbEntity
100
AcDbLine
  8
helper
 62
256
370
-1
  6
ByLayer
 10
-34.3781962931892977
 20
374.9651682856961088
 30
0.0
 11
-34.3781962931892977
 21
376.9151682856960974
 31
0.0
  0
LINE
  5
224
100
AcDbEntity
100
AcDbLine
  8
helper
 62
256
370
-1
  6
ByLayer
 10
-35.3531962931892991
 20
375.9401682856961315
 30
0.0
 11
-33.4031962931892892
 21
375.9401682856961315
 31
0.0
  0
LINE
  5
225
100
AcDbEntity
100
AcDbLine
  8
helper
 62
256
370
-1
  6
ByLayer
 10
-31.0272540375178778
 20
375.9401682856961315
 30
0.0
 11
-29.0772540375178785
 21
375.9401682856961315
 31
0.0
  0
LINE
  5
226
100
AcDbEntity
100
AcDbLine
  8
helper
 62
256
370
-1
  6
ByLayer
 10
-26.7013117818465062
 20
375.9401682856961315
 30
0.0
 11
-24.7513117818464892
 21
375.9401682856961315
 31
0.0
  0
ARC
  5
227
100
AcDbEntity
  8
helper
 62
256
370
-1
  6
ByLayer
100
AcDbCircle
 10
-139.9188586147084266
 20
390.4900000000000091
 30
0.0
 40
115.1157476416234431
100
AcDbArc
 50
344.7182335341883572
 51
345.6887966960096037
  0
ARC
  5
228
100
AcDbEntity
  8
helper
 62
256
370
-1
  6
ByLayer
100
AcDbCircle
 10
-139.9188586147084266
 20
390.4900000000000091
 30
0.0
 40
115.1157476416234431
100
AcDbArc
 50
346.8220249955544432
 51
347.7925881573760307
  0
ARC
  5
229
100
AcDbEntity
  8
helper
 62
256
370
-1
  6
ByLayer
100
AcDbCircle
 10
60.418858614708391
 20
390.4899999999999523
 30
0.0
 40
115.1157476416234431
100
AcDbArc
 50
164.7182335341883004
 51
165.6887966960098311
  0
ARC
  5
22A
100
AcDbEntity
  8
helper
 62
256
370
-1
  6
ByLayer
100
AcDbCircle
 10
60.418858614708391
 20
390.4899999999999523
 30
0.0
 40
115.1157476416234431
100
AcDbArc
 50
166.8220249955545
 51
167.7925881573760307
  0
LINE
  5
22B
100
AcDbEntity
100
AcDbLine
  8
helper
 62
256
370
-1
  6
ByLayer
 10
-39.3067677017277788
 20
365.1965608720747127
 30
0.0
 11
-39.7500000000000284
 21
365.1965608720747127
 31
0.0
  0
ARC
  5
22C
100
AcDbEntity
  8
helper
 62
256
370
-1
  6
ByLayer
100
AcDbCircle
 10
-39.7500000000000284
 20
370.5683645788854506
 30
0.0
 40
5.3718037068107263
100
AcDbArc
 50
253.9089664479824648
 51
270.0
  0
LINE
  5
22D
100
AcDbEntity
100
AcDbLine
  8
helper
 62
256
370
-1
  6
ByLayer
 10
-40.1932322982722638
 20
415.7834391279251918
 30
0.0
 11
-39.7500000000000213
 21
415.7834391279251918
 31
0.0
  0
ARC
  5
22E
100
AcDbEntity
  8
helper
 62
256
370
-1
  6
ByLayer
100
AcDbCircle
 10
-39.7500000000000213
 20
410.4116354211143971
 30
0.0
 40
5.3718037068107263
100
AcDbArc
 50
73.9089664479824648
 51
90.0
  0
LINE
  5
22F
100
AcDbEntity
100
AcDbLine
  8
contour
 62
256
370
-1
  6
ByLayer
 10
-88.2097979746446583
 20
459.6599999999999682
 30
0.0
 11
-78.6499999999999915
 21
450.1002020253552587
 31
0.0
  0
LINE
  5
230
100
AcDbEntity
100
AcDbLine
  8
contour
 62
256
370
-1
  6
ByLayer
 10
-78.6499999999999915
 20
450.1002020253552587
 30
0.0
 11
-69.090202025355353
 21
459.6599999999999113
 31
0.0
  0
LINE
  5
231
100
AcDbEntity
100
AcDbLine
  8
bend
 62
256
370
-1
  6
ByLayer
 10
-75.8500000000000085
 20
328.0797979746446345
 30
0.0
 11
-75.8499999999999801
 21
452.9002020253552701
 31
0.0
  0
LINE
  5
232
100
AcDbEntity
100
AcDbLine
  8
contour
 62
256
370
-1
  6
ByLayer
 10
-78.6500000000000199
 20
330.8797979746446458
 30
0.0
 11
-69.0902020253553815
 21
321.3199999999999932
 31
0.0
  0
LINE
  5
233
100
AcDbEntity
100
AcDbLine
  8
bend
 62
256
370
-1
  6
ByLayer
 10
-81.4500000000000313
 20
328.0797979746447481
 30
0.0
 11
-81.4500000000000028
 21
452.9002020253552701
 31
0.0
  0
LINE
  5
234
100
AcDbEntity
100
AcDbLine
  8
contour
 62
256
370
-1
  6
ByLayer
 10
-78.6500000000000199
 20
330.8797979746447595
 30
0.0
 11
-78.6499999999999915
 21
450.1002020253552587
 31
0.0
  0
LINE
  5
235
100
AcDbEntity
100
AcDbLine
  8
contour
 62
256
370
-1
  6
ByLayer
 10
-88.2097979746447152
 20
321.32000000000005
 30
0.0
 11
-78.6500000000000199
 21
330.8797979746447595
 31
0.0
  0
LINE
  5
236
100
AcDbEntity
100
AcDbLine
  8
helper
 62
256
370
-1
  6
ByLayer
 10
-154.1500000000000341
 20
335.1399999999999864
 30
0.0
 11
-81.4500000000000313
 21
335.1399999999999864
 31
0.0
  0
LINE
  5
237
100
AcDbEntity
100
AcDbLine
  8
helper
 62
256
370
-1
  6
ByLayer
 10
-154.1500000000000341
 20
370.6999999999999886
 30
0.0
 11
-81.4500000000000171
 21
370.6999999999999886
 31
0.0
  0
LINE
  5
238
100
AcDbEntity
100
AcDbLine
  8
helper
 62
256
370
-1
  6
ByLayer
 10
-154.1500000000000057
 20
406.2300000000000182
 30
0.0
 11
-81.4500000000000171
 21
406.2300000000000182
 31
0.0
  0
LINE
  5
239
100
AcDbEntity
100
AcDbLine
  8
helper
 62
256
370
-1
  6
ByLayer
 10
-154.1500000000000057
 20
445.0199999999999818
 30
0.0
 11
-81.4500000000000028
 21
445.0199999999999818
 31
0.0
  0
LINE
  5
23A
100
AcDbEntity
100
AcDbLine
  8
contour
 62
256
370
-1
  6
ByLayer
 10
-156.9500000000000171
 20
450.1002020253553155
 30
0.0
 11
-147.3902020253553928
 21
459.6599999999999682
 31
0.0
  0
LINE
  5
23B
100
AcDbEntity
100
AcDbLine
  8
bend
 62
256
370
-1
  6
ByLayer
 10
-150.1902020253553474
 20
456.8600000000000136
 30
0.0
 11
-85.409797974644718
 21
456.8600000000000136
 31
0.0
  0
LINE
  5
23C
100
AcDbEntity
100
AcDbLine
  8
contour
 62
256
370
-1
  6
ByLayer
 10
-147.3902020253553928
 20
459.6599999999999682
 30
0.0
 11
-88.2097979746446583
 21
459.6599999999999682
 31
0.0
  0
LINE
  5
23D
100
AcDbEntity
100
AcDbLine
  8
bend
 62
256
370
-1
  6
ByLayer
 10
-150.1902020253553474
 20
324.1200000000000045
 30
0.0
 11
-85.4097979746447606
 21
324.1200000000000045
 31
0.0
  0
LINE
  5
23E
100
AcDbEntity
100
AcDbLine
  8
contour
 62
256
370
-1
  6
ByLayer
 10
-147.3902020253553928
 20
321.32000000000005
 30
0.0
 11
-88.2097979746447152
 21
321.32000000000005
 31
0.0
  0
LINE
  5
23F
100
AcDbEntity
100
AcDbLine
  8
bend
 62
256
370
-1
  6
ByLayer
 10
-154.1500000000000341
 20
328.0797979746446913
 30
0.0
 11
-154.1500000000000057
 21
452.9002020253553269
 31
0.0
  0
LINE
  5
240
100
AcDbEntity
100
AcDbLine
  8
contour
 62
256
370
-1
  6
ByLayer
 10
-156.9500000000000455
 20
330.8797979746447027
 30
0.0
 11
-156.9500000000000171
 21
450.1002020253553155
 31
0.0
  0
LINE
  5
241
100
AcDbEntity
100
AcDbLine
  8
contour
 62
256
370
-1
  6
ByLayer
 10
-156.9500000000000455
 20
330.8797979746447027
 30
0.0
 11
-147.3902020253553928
 21
321.32000000000005
 31
0.0
  0
LINE
  5
242
100
AcDbEntity
100
AcDbLine
  8
bend
 62
256
370
-1
  6
ByLayer
 10
-71.8902020253553076
 20
456.8599999999999568
 30
0.0
 11
-7.1097979746447146
 21
456.8599999999999568
 31
0.0
  0
LINE
  5
243
100
AcDbEntity
100
AcDbLine
  8
contour
 62
256
370
-1
  6
ByLayer
 10
-69.090202025355353
 20
459.6599999999999113
 30
0.0
 11
-9.9097979746446789
 21
459.6599999999999113
 31
0.0
  0
LINE
  5
244
100
AcDbEntity
100
AcDbLine
  8
contour
 62
256
370
-1
  6
ByLayer
 10
-9.9097979746446789
 20
459.6599999999999113
 30
0.0
 11
-0.3499999999999669
 21
450.1002020253552018
 31
0.0
  0
LINE
  5
245
100
AcDbEntity
100
AcDbLine
  8
bend
 62
256
370
-1
  6
ByLayer
 10
-3.1500000000000048
 20
328.0797979746446913
 30
0.0
 11
-3.1499999999999782
 21
452.9002020253552132
 31
0.0
  0
LINE
  5
246
100
AcDbEntity
100
AcDbLine
  8
contour
 62
256
370
-1
  6
ByLayer
 10
-0.3499999999999933
 20
330.8797979746447027
 30
0.0
 11
-0.3499999999999669
 21
450.1002020253552018
 31
0.0
  0
LINE
  5
247
100
AcDbEntity
100
AcDbLine
  8
contour
 62
256
370
-1
  6
ByLayer
 10
-9.9097979746446789
 20
321.3199999999999932
 30
0.0
 11
-0.3499999999999933
 21
330.8797979746447027
 31
0.0
  0
LINE
  5
248
100
AcDbEntity
100
AcDbLine
  8
bend
 62
256
370
-1
  6
ByLayer
 10
-71.890202025355336
 20
324.1199999999999477
 30
0.0
 11
-7.1097979746447351
 21
324.1199999999999477
 31
0.0
  0
LINE
  5
249
100
AcDbEntity
100
AcDbLine
  8
contour
 62
256
370
-1
  6
ByLayer
 10
-69.0902020253553815
 20
321.3199999999999932
 30
0.0
 11
-9.9097979746446789
 21
321.3199999999999932
 31
0.0
  0
LINE
  5
24A
100
AcDbEntity
100
AcDbLine
  8
bend
 62
256
370
-1
  6
ByLayer
 10
-43.0
 20
310.6000000000000227
 30
0.0
 11
-119.5
 21
310.6000000000000227
 31
0.0
  0
LINE
  5
24B
100
AcDbEntity
100
AcDbLine
  8
bend
 62
256
370
-1
  6
ByLayer
 10
-43.0
 20
290.25
 30
0.0
 11
-119.5
 21
290.25
 31
0.0
  0
LINE
  5
24C
100
AcDbEntity
100
AcDbLine
  8
bend
 62
256
370
-1
  6
ByLayer
 10
-42.9999999999999574
 20
282.6500000000000341
 30
0.0
 11
-119.4999999999999574
 21
282.6500000000000341
 31
0.0
  0
LINE
  5
24D
100
AcDbEntity
100
AcDbLine
  8
bend
 62
256
370
-1
  6
ByLayer
 10
-42.9999999999999574
 20
262.2999999999999545
 30
0.0
 11
-119.4999999999999716
 21
262.2999999999999545
 31
0.0
  0
LINE
  5
24E
100
AcDbEntity
100
AcDbLine
  8
contour
 62
256
370
-1
  6
ByLayer
 10
-42.9999999999999574
 20
262.2999999999999545
 30
0.0
 11
-42.9999999999999574
 21
282.6500000000000341
 31
0.0
  0
LINE
  5
24F
100
AcDbEntity
100
AcDbLine
  8
contour
 62
256
370
-1
  6
ByLayer
 10
-43.0
 20
290.25
 30
0.0
 11
-46.7999999999999545
 21
286.4500000000000455
 31
0.0
  0
LINE
  5
250
100
AcDbEntity
100
AcDbLine
  8
contour
 62
256
370
-1
  6
ByLayer
 10
-42.9999999999999574
 20
282.6500000000000341
 30
0.0
 11
-46.7999999999999687
 21
286.4500000000000455
 31
0.0
  0
LINE
  5
251
100
AcDbEntity
100
AcDbLine
  8
contour
 62
256
370
-1
  6
ByLayer
 10
-115.7000000000000028
 20
286.4499999999999886
 30
0.0
 11
-46.7999999999999687
 21
286.4500000000000455
 31
0.0
  0
LINE
  5
252
100
AcDbEntity
100
AcDbLine
  8
contour
 62
256
370
-1
  6
ByLayer
 10
-42.9999999999999574
 20
262.2999999999999545
 30
0.0
 11
-46.7999999999999119
 21
258.5
 31
0.0
  0
LINE
  5
253
100
AcDbEntity
100
AcDbLine
  8
contour
 62
256
370
-1
  6
ByLayer
 10
-115.699999999999946
 20
258.5
 30
0.0
 11
-46.7999999999999119
 21
258.5
 31
0.0
  0
LINE
  5
254
100
AcDbEntity
100
AcDbLine
  8
contour
 62
256
370
-1
  6
ByLayer
 10
-115.7000000000000455
 20
314.3999999999999773
 30
0.0
 11
-46.8000000000000114
 21
314.4000000000000341
 31
0.0
  0
LINE
  5
255
100
AcDbEntity
100
AcDbLine
  8
contour
 62
256
370
-1
  6
ByLayer
 10
-43.0
 20
310.6000000000000227
 30
0.0
 11
-46.8000000000000114
 21
314.4000000000000341
 31
0.0
  0
LINE
  5
256
100
AcDbEntity
100
AcDbLine
  8
contour
 62
256
370
-1
  6
ByLayer
 10
-43.0
 20
290.25
 30
0.0
 11
-43.0
 21
310.6000000000000227
 31
0.0
  0
MTEXT
  5
257
100
AcDbEntity
100
AcDbMText
  8
contour
 62
256
370
-1
  6
ByLayer
 10
-139.7644879054932403
 20
386.768687167671203
 30
0.0
 40
5.0
 41
100.0
 71
5
 72
2
  1
77.5mm
  7
normallatin1
 50
0.0
 73
0
 44
1.0
  0
MTEXT
  5
258
100
AcDbEntity
100
AcDbMText
  8
contour
 62
256
370
-1
  6
ByLayer
 10
-62.1222710383764323
 20
330.8057843243142884
 30
0.0
 40
5.0
 41
100.0
 71
5
 72
2
  1
77.5mm
  7
normallatin1
 50
0.0
 73
0
 44
1.0
  0
MTEXT
  5
259
100
AcDbEntity
100
AcDbMText
  8
contour
 62
256
370
-1
  6
ByLayer
 10
-56.1672230466291893
 20
300.7921825823858626
 30
0.0
 40
5.0
 41
100.0
 71
5
 72
2
  1
77.5mm
  7
normallatin1
 50
0.0
 73
0
 44
1.0
  0
MTEXT
  5
25A
100
AcDbEntity
100
AcDbMText
  8
contour
 62
256
370
-1
  6
ByLayer
 10
-55.2083558134684864
 20
272.7615322362702273
 30
0.0
 40
5.0
 41
100.0
 71
5
 72
2
  1
77.5mm
  7
normallatin1
 50
0.0
 73
0
 44
1.0
  0
ENDSEC
  0
SECTION
  2
OBJECTS
  0
DICTIONARY
  5
C
100
AcDbDictionary
280
0
281
1
  3
ACAD_GROUP
350
D
  3
ACAD_LAYOUT
350
1A
  3
ACAD_MLINESTYLE
350
17
  3
ACAD_PLOTSETTINGS
350
19
  3
ACAD_PLOTSTYLENAME
350
E
  3
AcDbVariableDictionary
350
25B
  0
DICTIONARY
  5
D
100
AcDbDictionary
280
0
281
1
  0
ACDBDICTIONARYWDFLT
  5
E
100
AcDbDictionary
281
1
  3
Normal
350
F
100
AcDbDictionaryWithDefault
340
F
  0
ACDBPLACEHOLDER
  5
F
  0
DICTIONARY
  5
17
100
AcDbDictionary
280
0
281
1
  3
Standard
350
18
  0
MLINESTYLE
  5
18
100
AcDbMlineStyle
  2
STANDARD
 70
0
  3

 62
256
 51
90.0
 52
90.0
 71
2
 49
0.5
 62
256
  6
BYLAYER
 49
-0.5
 62
256
  6
BYLAYER
  0
DICTIONARY
  5
19
100
AcDbDictionary
280
0
281
1
  0
DICTIONARY
  5
1A
100
AcDbDictionary
281
1
  3
Layout1
350
1E
  3
Layout2
350
26
  3
Model
350
22
  0
LAYOUT
  5
1E
100
AcDbPlotSettings
  1

  2
C:\Program Files\AutoCAD 2002\plotters\DWF ePlot (optimized for plotting).pc3
  4

  6

 40
0.0
 41
0.0
 42
0.0
 43
0.0
 44
0.0
 45
0.0
 46
0.0
 47
0.0
 48
0.0
 49
0.0
140
0.0
141
0.0
142
1.0
143
1.0
 70
688
 72
0
 73
0
 74
5
  7

 75
16
147
1.0
148
0.0
149
0.0
100
AcDbLayout
  1
Layout1
 70
1
 71
1
 10
0.0
 20
0.0
 11
420.0
 21
297.0
 12
0.0
 22
0.0
 32
0.0
 14
100000000000000000000.0
 24
100000000000000000000.0
 34
100000000000000000000.0
 15
-100000000000000000000.0
 25
-100000000000000000000.0
 35
-100000000000000000000.0
146
0.0
 13
0.0
 23
0.0
 33
0.0
 16
1.0
 26
0.0
 36
0.0
 17
0.0
 27
1.0
 37
0.0
 76
0
330
1B
  0
LAYOUT
  5
22
100
AcDbPlotSettings
  1

  2
C:\Program Files\AutoCAD 2002\plotters\DWF ePlot (optimized for plotting).pc3
  4

  6

 40
0.0
 41
0.0
 42
0.0
 43
0.0
 44
0.0
 45
0.0
 46
0.0
 47
0.0
 48
0.0
 49
0.0
140
0.0
141
0.0
142
1.0
143
1.0
 70
1712
 72
0
 73
0
 74
0
  7

 75
0
147
1.0
148
0.0
149
0.0
100
AcDbLayout
  1
Model
 70
1
 71
0
 10
0.0
 20
0.0
 11
12.0
 21
9.0
 12
0.0
 22
0.0
 32
0.0
 14
0.0
 24
0.0
 34
0.0
 15
0.0
 25
0.0
 35
0.0
146
0.0
 13
0.0
 23
0.0
 33
0.0
 16
1.0
 26
0.0
 36
0.0
 17
0.0
 27
1.0
 37
0.0
 76
0
330
1F
  0
LAYOUT
  5
26
100
AcDbPlotSettings
  1

  2
C:\Program Files\AutoCAD 2002\plotters\DWF ePlot (optimized for plotting).pc3
  4

  6

 40
0.0
 41
0.0
 42
0.0
 43
0.0
 44
0.0
 45
0.0
 46
0.0
 47
0.0
 48
0.0
 49
0.0
140
0.0
141
0.0
142
1.0
143
1.0
 70
688
 72
0
 73
0
 74
5
  7

 75
16
147
1.0
148
0.0
149
0.0
100
AcDbLayout
  1
Layout2
 70
1
 71
2
 10
0.0
 20
0.0
 11
12.0
 21
9.0
 12
0.0
 22
0.0
 32
0.0
 14
0.0
 24
0.0
 34
0.0
 15
0.0
 25
0.0
 35
0.0
146
0.0
 13
0.0
 23
0.0
 33
0.0
 16
1.0
 26
0.0
 36
0.0
 17
0.0
 27
1.0
 37
0.0
 76
0
330
23
  0
DICTIONARY
  5
25B
100
AcDbDictionary
281
1
  3
DIMASSOC
350
25D
  3
HIDETEXT
350
25C
  0
DICTIONARYVAR
  5
25C
100
DictionaryVariables
280
0
  1
2
  0
DICTIONARYVAR
  5
25D
100
DictionaryVariables
280
0
  1
1
  0
ENDSEC
  0
EOF
