  0
SECTION
  2
HEADER
  9
$LIMMIN
 10
0.000000
 20
0.000000
  9
$LIMMAX
 10
194.428061
 20
253.817046
  9
$EXTMIN
 10
0.000000
 20
0.000000
  9
$EXTMAX
 10
194.428061
 20
253.817046
  9
$ANGBASE
 50
0.000000
  9
$ANGDIR
 70
0
  9
$INSUNITS
 70
4
  9
$DIMALT
 70
4
  9
$DIMLUNIT
 70
2
  9
$DIMASZ
 40
3.000000
  9
$DIMTXT
 40
5.000000
  9
$DIMRND
 40
0.010000
  9
$DIMEXE
 40
2.000000
  9
$DIMEXO
 40
2.000000
  9
$DIMAUNIT
 70
0
  9
$DIMADEC
 70
2
  9
$GRIDUNIT
 10
0.001000
 20
0.001000
  9
$PLIMMIN
 10
0.000000
 20
0.000000
  9
$PLIMMAX
 10
210.000000
 20
297.000000
  9
$PSVPSCALE
 40
1.000000
  0
ENDSEC
  0
SECTION
  2
TABLES
  0
TABLE
  2
LTYPE
 70
     1
  0
LTYPE
  2
CONTINUOUS
 70
    64
  3
Ausgez
 72
    65
 73
  0
 40
0.000000
  0
ENDTAB
  0
TABLE
  2
LAYER
 70
     1
  0
LAYER
  2
default
 70
    64
 62
7
  6
CONTINUOUS
  0
LAYER
  2
contour
 70
    64
 62
7
  6
CONTINUOUS
  0
LAYER
  2
bend
 70
    64
 62
7
  6
DASH
  0
LAYER
  2
guide
 70
    64
 62
7
  6
CONTINUOUS
  0
ENDTAB
  0
ENDSEC
  0
SECTION
  2
BLOCKS
  0
ENDSEC
  0
SECTION
  2
ENTITIES
  0
LINE
  8
contour
  6
CONTINUOUS
 10
20.428061
 20
253.817046
 11
40.428061
 21
253.817046
 39
3
 62
7
  0
LINE
  8
contour
  6
CONTINUOUS
 10
20.428061
 20
51.817046
 11
40.428061
 21
51.817046
 39
3
 62
7
  0
LINE
  8
contour
  6
CONTINUOUS
 10
20.428061
 20
51.817046
 11
20.428061
 21
117.817046
 39
3
 62
7
  0
LINE
  8
contour
  6
CONTINUOUS
 10
20.428061
 20
117.817046
 11
40.428061
 21
117.817046
 39
3
 62
7
  0
LINE
  8
contour
  6
CONTINUOUS
 10
20.428061
 20
119.817046
 11
20.428061
 21
185.817046
 39
3
 62
7
  0
LINE
  8
contour
  6
CONTINUOUS
 10
20.428061
 20
185.817046
 11
40.428061
 21
185.817046
 39
3
 62
7
  0
LINE
  8
contour
  6
CONTINUOUS
 10
40.428061
 20
119.817046
 11
40.428061
 21
185.817046
 39
3
 62
7
  0
LINE
  8
contour
  6
CONTINUOUS
 10
20.428061
 20
119.817046
 11
40.428061
 21
119.817046
 39
3
 62
7
  0
LINE
  8
contour
  6
CONTINUOUS
 10
20.428061
 20
187.817046
 11
20.428061
 21
253.817046
 39
3
 62
7
  0
LINE
  8
contour
  6
CONTINUOUS
 10
40.428061
 20
187.817046
 11
40.428061
 21
253.817046
 39
3
 62
7
  0
LINE
  8
contour
  6
CONTINUOUS
 10
20.428061
 20
187.817046
 11
40.428061
 21
187.817046
 39
3
 62
7
  0
LINE
  8
contour
  6
CONTINUOUS
 10
40.428061
 20
253.817046
 11
60.428061
 21
253.817046
 39
3
 62
7
  0
LINE
  8
contour
  6
CONTINUOUS
 10
40.428061
 20
51.817046
 11
40.428061
 21
117.817046
 39
3
 62
7
  0
LINE
  8
contour
  6
CONTINUOUS
 10
40.428061
 20
119.817046
 11
40.428061
 21
185.817046
 39
3
 62
7
  0
LINE
  8
contour
  6
CONTINUOUS
 10
40.428061
 20
185.817046
 11
60.428061
 21
185.817046
 39
3
 62
7
  0
LINE
  8
contour
  6
CONTINUOUS
 10
60.428061
 20
119.817046
 11
60.428061
 21
185.817046
 39
3
 62
7
  0
LINE
  8
contour
  6
CONTINUOUS
 10
40.428061
 20
119.817046
 11
60.428061
 21
119.817046
 39
3
 62
7
  0
LINE
  8
contour
  6
CONTINUOUS
 10
40.428061
 20
187.817046
 11
40.428061
 21
253.817046
 39
3
 62
7
  0
LINE
  8
contour
  6
CONTINUOUS
 10
60.428061
 20
187.817046
 11
60.428061
 21
253.817046
 39
3
 62
7
  0
LINE
  8
contour
  6
CONTINUOUS
 10
40.428061
 20
187.817046
 11
60.428061
 21
187.817046
 39
3
 62
7
  0
LINE
  8
contour
  6
CONTINUOUS
 10
194.428061
 20
119.817046
 11
194.428061
 21
59.817046
 39
3
 62
7
  0
LINE
  8
contour
  6
CONTINUOUS
 10
40.428061
 20
119.817046
 11
40.428061
 21
59.817046
 39
3
 62
7
  0
LINE
  8
contour
  6
CONTINUOUS
 10
142.428061
 20
119.817046
 11
142.428061
 21
59.817046
 39
3
 62
7
  0
LINE
  8
contour
  6
CONTINUOUS
 10
90.428061
 20
119.817046
 11
90.428061
 21
59.817046
 39
3
 62
7
  0
LINE
  8
contour
  6
CONTINUOUS
 10
40.428061
 20
59.817046
 11
90.428061
 21
59.817046
 39
3
 62
7
  0
LINE
  8
contour
  6
CONTINUOUS
 10
40.428061
 20
119.817046
 11
90.428061
 21
119.817046
 39
3
 62
7
  0
LINE
  8
contour
  6
CONTINUOUS
 10
92.428061
 20
119.817046
 11
142.428061
 21
119.817046
 39
3
 62
7
  0
LINE
  8
contour
  6
CONTINUOUS
 10
144.428061
 20
119.817046
 11
194.428061
 21
119.817046
 39
3
 62
7
  0
LINE
  8
contour
  6
CONTINUOUS
 10
144.428061
 20
119.817046
 11
144.428061
 21
59.817046
 39
3
 62
7
  0
LINE
  8
contour
  6
CONTINUOUS
 10
144.428061
 20
59.817046
 11
194.428061
 21
59.817046
 39
3
 62
7
  0
LINE
  8
contour
  6
CONTINUOUS
 10
92.428061
 20
119.817046
 11
92.428061
 21
59.817046
 39
3
 62
7
  0
LINE
  8
contour
  6
CONTINUOUS
 10
92.428061
 20
59.817046
 11
142.428061
 21
59.817046
 39
3
 62
7
  0
LINE
  8
guide
  6
CONTINUOUS
 10
40.428061
 20
106.817046
 11
90.428061
 21
106.817046
 39
1
 62
7
  0
LINE
  8
guide
  6
CONTINUOUS
 10
92.428061
 20
106.817046
 11
142.428061
 21
106.817046
 39
1
 62
7
  0
LINE
  8
guide
  6
CONTINUOUS
 10
144.428061
 20
106.817046
 11
194.428061
 21
106.817046
 39
1
 62
7
  0
CIRCLE
  8
contour
  6
CONTINUOUS
 10
57.428061
 20
106.817046
 40
5.000000
 39
3
 62
7
  0
CIRCLE
  8
contour
  6
CONTINUOUS
 10
125.428061
 20
106.817046
 40
5.000000
 39
3
 62
7
  0
CIRCLE
  8
contour
  6
CONTINUOUS
 10
177.428061
 20
106.817046
 40
5.000000
 39
3
 62
7
  0
LINE
  8
guide
  6
CONTINUOUS
 10
57.428061
 20
119.817046
 11
57.428061
 21
89.817046
 39
1
 62
7
  0
LINE
  8
guide
  6
CONTINUOUS
 10
125.428061
 20
119.817046
 11
125.428061
 21
89.817046
 39
1
 62
7
  0
LINE
  8
guide
  6
CONTINUOUS
 10
177.428061
 20
119.817046
 11
177.428061
 21
89.817046
 39
1
 62
7
  0
TEXT
  8
contour
  6
CONTINUOUS
 10
61.707988
 20
93.476026
 40
10.000000
 50
0.000000
 72
0
  7
Normal#2.000000#6.000000
  1
10
 39
3
 62
7
  0
TEXT
  8
contour
  6
CONTINUOUS
 10
112.133476
 20
92.903009
 40
10.000000
 50
0.000000
 72
0
  7
Normal#2.000000#6.000000
  1
10
 39
3
 62
7
  0
TEXT
  8
contour
  6
CONTINUOUS
 10
165.233043
 20
92.903009
 40
10.000000
 50
0.000000
 72
0
  7
Normal#2.000000#6.000000
  1
10
 39
3
 62
7
  0
TEXT
  8
contour
  6
CONTINUOUS
 10
44.517481
 20
72.083395
 40
5.000000
 50
0.000000
 72
0
  7
Normal#0.500000#3.000000
  1
30x30x3 L section
 39
3
 62
7
  0
LINE
  8
bend
  6
DASH
 10
40.428061
 20
89.817046
 11
90.428061
 21
89.817046
 39
2
 62
7
  0
LINE
  8
bend
  6
DASH
 10
92.428061
 20
89.817046
 11
142.428061
 21
89.817046
 39
2
 62
7
  0
LINE
  8
bend
  6
DASH
 10
144.428061
 20
89.817046
 11
194.428061
 21
89.817046
 39
2
 62
7
  0
LINE
  8
contour
  6
CONTINUOUS
 10
87.197587
 20
234.867508
 11
171.197587
 21
234.867508
 39
3
 62
7
  0
LINE
  8
contour
  6
CONTINUOUS
 10
171.197587
 20
234.867508
 11
171.197587
 21
150.867508
 39
3
 62
7
  0
LINE
  8
contour
  6
CONTINUOUS
 10
87.197587
 20
150.867508
 11
171.197587
 21
150.867508
 39
3
 62
7
  0
LINE
  8
contour
  6
CONTINUOUS
 10
87.197587
 20
234.867508
 11
87.197587
 21
150.867508
 39
3
 62
7
  0
LINE
  8
guide
  6
CONTINUOUS
 10
85.197587
 20
236.867508
 11
173.197587
 21
236.867508
 39
1
 62
7
  0
LINE
  8
guide
  6
CONTINUOUS
 10
173.197587
 20
236.867508
 11
173.197587
 21
148.867508
 39
1
 62
7
  0
LINE
  8
guide
  6
CONTINUOUS
 10
85.197587
 20
148.867508
 11
173.197587
 21
148.867508
 39
1
 62
7
  0
LINE
  8
guide
  6
CONTINUOUS
 10
85.197587
 20
236.867508
 11
85.197587
 21
148.867508
 39
1
 62
7
  0
LINE
  8
contour
  6
CONTINUOUS
 10
83.197587
 20
146.867508
 11
175.197587
 21
146.867508
 39
3
 62
7
  0
LINE
  8
contour
  6
CONTINUOUS
 10
175.197587
 20
238.867508
 11
175.197587
 21
146.867508
 39
3
 62
7
  0
LINE
  8
contour
  6
CONTINUOUS
 10
83.197587
 20
238.867508
 11
175.197587
 21
238.867508
 39
3
 62
7
  0
LINE
  8
contour
  6
CONTINUOUS
 10
83.197587
 20
238.867508
 11
83.197587
 21
146.867508
 39
3
 62
7
  0
TEXT
  8
contour
  6
CONTINUOUS
 10
115.474556
 20
221.534250
 40
5.000000
 50
0.000000
 72
0
  7
Normal#0.500000#3.000000
  1
4+2-0mm steel plate
 39
3
 62
7
  0
CIRCLE
  8
contour
  6
CONTINUOUS
 10
129.197587
 20
192.867508
 40
4.500000
 39
3
 62
7
  0
LINE
  8
guide
  6
CONTINUOUS
 10
87.197587
 20
192.867508
 11
171.197587
 21
192.867508
 39
1
 62
7
  0
TEXT
  8
contour
  6
CONTINUOUS
 10
133.916058
 20
177.889363
 40
10.000000
 50
0.000000
 72
0
  7
Normal#1.000000#6.000000
  1
9
 39
3
 62
7
  0
LINE
  8
guide
  6
CONTINUOUS
 10
129.197587
 20
216.867508
 11
129.197587
 21
150.867508
 39
1
 62
7
  0
TEXT
  8
contour
  6
CONTINUOUS
 10
90.435382
 20
162.622279
 40
7.000000
 50
0.000000
 72
0
  7
Normal#0.700000#4.200000
  1
Plasma cut
 39
3
 62
7
  0
TEXT
  8
contour
  6
CONTINUOUS
 10
35.213174
 20
152.590419
 40
8.000000
 50
90.000000
 72
1
  7
Normal#0.800000#4.800000
  1
20x4 flat steel
 39
3
 62
7
  0
ENDSEC
  0
EOF
