  0
SECTION
  2
HEADER
  9
$LIMMIN
 10
0.000000
 20
0.000000
  9
$LIMMAX
 10
157.359204
 20
160.642689
  9
$EXTMIN
 10
0.000000
 20
0.000000
  9
$EXTMAX
 10
157.359204
 20
160.642689
  9
$ANGBASE
 50
0.000000
  9
$ANGDIR
 70
0
  9
$INSUNITS
 70
4
  9
$DIMALT
 70
4
  9
$DIMLUNIT
 70
2
  9
$DIMASZ
 40
2.500000
  9
$DIMTXT
 40
2.500000
  9
$DIMRND
 40
0.010000
  9
$DIMEXE
 40
1.250000
  9
$DIMEXO
 40
0.625000
  9
$DIMAUNIT
 70
0
  9
$DIMADEC
 70
2
  9
$GRIDUNIT
 10
0.001000
 20
20.000000
  9
$PLIMMIN
 10
0.000000
 20
0.000000
  9
$PLIMMAX
 10
210.000000
 20
297.000000
  9
$PSVPSCALE
 40
1.000000
  0
ENDSEC
  0
SECTION
  2
TABLES
  0
TABLE
  2
LTYPE
 70
     1
  0
LTYPE
  2
CONTINUOUS
 70
    64
  3
Ausgez
 72
    65
 73
  0
 40
0.000000
  0
ENDTAB
  0
TABLE
  2
LAYER
 70
     1
  0
LAYER
  2
contour
 70
    64
 62
7
  6
CONTINUOUS
  0
LAYER
  2
helper
 70
    64
 62
7
  6
CONTINUOUS
  0
ENDTAB
  0
ENDSEC
  0
SECTION
  2
BLOCKS
  0
ENDSEC
  0
SECTION
  2
ENTITIES
  0
LINE
  8
helper
  6
CONTINUOUS
 10
112.359204
 20
138.642689
 11
112.359204
 21
160.642689
 39
1
 62
7
  0
LINE
  8
helper
  6
CONTINUOUS
 10
67.359204
 20
149.642689
 11
157.359204
 21
149.642689
 39
1
 62
7
  0
LINE
  8
helper
  6
CONTINUOUS
 10
142.359204
 20
138.642689
 11
142.359204
 21
160.642689
 39
1
 62
7
  0
LINE
  8
helper
  6
CONTINUOUS
 10
82.359204
 20
138.642689
 11
82.359204
 21
160.642689
 39
1
 62
7
  0
CIRCLE
  8
contour
  6
CONTINUOUS
 10
112.359204
 20
149.642689
 40
4.250000
 39
3
 62
7
  0
CIRCLE
  8
contour
  6
CONTINUOUS
 10
142.359204
 20
149.642689
 40
1.550000
 39
3
 62
7
  0
CIRCLE
  8
contour
  6
CONTINUOUS
 10
82.359204
 20
149.642689
 40
1.550000
 39
3
 62
7
  0
TEXT
  8
contour
  6
CONTINUOUS
 10
84.713422
 20
142.260080
 40
5.000000
 50
0.000000
 72
0
  7
Normal#0.500000#3.000000
  1
3.1
 39
3
 62
7
  0
TEXT
  8
contour
  6
CONTINUOUS
 10
144.209362
 20
141.493380
 40
5.000000
 50
0.000000
 72
0
  7
Normal#0.500000#3.000000
  1
3.1
 39
3
 62
7
  0
TEXT
  8
contour
  6
CONTINUOUS
 10
117.374853
 20
140.420000
 40
5.000000
 50
0.000000
 72
0
  7
Normal#0.500000#3.000000
  1
8.5
 39
3
 62
7
  0
LINE
  8
contour
  6
CONTINUOUS
 10
67.359204
 20
160.642689
 11
67.359204
 21
138.642689
 39
3
 62
7
  0
LINE
  8
contour
  6
CONTINUOUS
 10
67.359204
 20
138.642689
 11
157.359204
 21
138.642689
 39
3
 62
7
  0
LINE
  8
contour
  6
CONTINUOUS
 10
157.359204
 20
160.642689
 11
157.359204
 21
138.642689
 39
3
 62
7
  0
LINE
  8
contour
  6
CONTINUOUS
 10
67.359204
 20
160.642689
 11
157.359204
 21
160.642689
 39
3
 62
7
  0
ENDSEC
  0
EOF
