  0
SECTION
  2
HEADER
  9
$LIMMIN
 10
0.000000
 20
-265.000000
  9
$LIMMAX
 10
323.750000
 20
250.000000
  9
$EXTMIN
 10
0.000000
 20
-265.000000
  9
$EXTMAX
 10
323.750000
 20
250.000000
  9
$ANGBASE
 50
0.000000
  9
$ANGDIR
 70
0
  9
$INSUNITS
 70
4
  9
$DIMALT
 70
4
  9
$DIMLUNIT
 70
2
  9
$DIMASZ
 40
3.000000
  9
$DIMTXT
 40
5.000000
  9
$DIMRND
 40
0.010000
  9
$DIMEXE
 40
2.000000
  9
$DIMEXO
 40
2.000000
  9
$DIMAUNIT
 70
0
  9
$DIMADEC
 70
2
  9
$GRIDUNIT
 10
0.001000
 20
0.001000
  9
$PLIMMIN
 10
0.000000
 20
0.000000
  9
$PLIMMAX
 10
210.000000
 20
297.000000
  9
$PSVPSCALE
 40
1.000000
  0
ENDSEC
  0
SECTION
  2
TABLES
  0
TABLE
  2
LTYPE
 70
     1
  0
LTYPE
  2
CONTINUOUS
 70
    64
  3
Ausgez
 72
    65
 73
  0
 40
0.000000
  0
ENDTAB
  0
TABLE
  2
LAYER
 70
     1
  0
LAYER
  2
default
 70
    64
 62
7
  6
CONTINUOUS
  0
LAYER
  2
helper
 70
    64
 62
7
  6
CONTINUOUS
  0
LAYER
  2
contour
 70
    64
 62
7
  6
CONTINUOUS
  0
LAYER
  2
bend
 70
    64
 62
7
  6
DOT
  0
ENDTAB
  0
ENDSEC
  0
SECTION
  2
BLOCKS
  0
ENDSEC
  0
SECTION
  2
ENTITIES
  0
LINE
  8
contour
  6
CONTINUOUS
 10
74.750000
 20
153.000000
 11
135.750000
 21
153.000000
 39
3
 62
7
  0
LINE
  8
contour
  6
CONTINUOUS
 10
135.750000
 20
153.000000
 11
138.750000
 21
150.000000
 39
3
 62
7
  0
LINE
  8
contour
  6
CONTINUOUS
 10
135.750000
 20
137.000000
 11
138.750000
 21
140.000000
 39
3
 62
7
  0
LINE
  8
contour
  6
CONTINUOUS
 10
71.750000
 20
150.000000
 11
74.750000
 21
153.000000
 39
3
 62
7
  0
LINE
  8
contour
  6
CONTINUOUS
 10
74.750000
 20
137.000000
 11
135.750000
 21
137.000000
 39
3
 62
7
  0
LINE
  8
contour
  6
CONTINUOUS
 10
71.750000
 20
140.000000
 11
74.750000
 21
137.000000
 39
3
 62
7
  0
LINE
  8
contour
  6
CONTINUOUS
 10
66.750000
 20
155.000000
 11
71.750000
 21
150.000000
 39
3
 62
7
  0
LINE
  8
contour
  6
CONTINUOUS
 10
66.750000
 20
135.000000
 11
71.750000
 21
140.000000
 39
3
 62
7
  0
LINE
  8
contour
  6
CONTINUOUS
 10
138.750000
 20
140.000000
 11
143.750000
 21
135.000000
 39
3
 62
7
  0
LINE
  8
contour
  6
CONTINUOUS
 10
138.750000
 20
150.000000
 11
143.750000
 21
155.000000
 39
3
 62
7
  0
CIRCLE
  8
helper
  6
CONTINUOUS
 10
79.750000
 20
145.000000
 40
2.500000
 39
1
 62
7
  0
CIRCLE
  8
helper
  6
CONTINUOUS
 10
130.750000
 20
145.000000
 40
2.500000
 39
1
 62
7
  0
LINE
  8
helper
  6
CONTINUOUS
 10
79.750000
 20
153.000000
 11
79.750000
 21
137.000000
 39
1
 62
7
  0
LINE
  8
helper
  6
CONTINUOUS
 10
130.750000
 20
153.000000
 11
130.750000
 21
137.000000
 39
1
 62
7
  0
LINE
  8
helper
  6
CONTINUOUS
 10
71.750000
 20
145.000000
 11
138.750000
 21
145.000000
 39
1
 62
7
  0
LINE
  8
bend
  6
DOT
 10
71.750000
 20
150.000000
 11
71.750000
 21
140.000000
 39
2
 62
7
  0
LINE
  8
bend
  6
DOT
 10
138.750000
 20
150.000000
 11
138.750000
 21
140.000000
 39
2
 62
7
  0
LINE
  8
contour
  6
CONTINUOUS
 10
56.750000
 20
130.000000
 11
61.750000
 21
135.000000
 39
3
 62
7
  0
LINE
  8
contour
  6
CONTINUOUS
 10
61.750000
 20
135.000000
 11
66.750000
 21
135.000000
 39
3
 62
7
  0
LINE
  8
contour
  6
CONTINUOUS
 10
56.750000
 20
160.000000
 11
61.750000
 21
155.000000
 39
3
 62
7
  0
LINE
  8
contour
  6
CONTINUOUS
 10
61.750000
 20
155.000000
 11
66.750000
 21
155.000000
 39
3
 62
7
  0
LINE
  8
bend
  6
DOT
 10
56.750000
 20
150.000000
 11
71.750000
 21
150.000000
 39
2
 62
7
  0
LINE
  8
bend
  6
DOT
 10
56.750000
 20
140.000000
 11
71.750000
 21
140.000000
 39
2
 62
7
  0
TEXT
  8
contour
  6
CONTINUOUS
 10
58.700048
 20
140.890829
 40
3.000000
 50
0.000000
 72
0
  7
Normal#0.300000#1.800000
  1
Bend
 39
3
 62
7
  0
LINE
  8
contour
  6
CONTINUOUS
 10
56.750000
 20
160.000000
 11
56.750000
 21
150.000000
 39
3
 62
7
  0
LINE
  8
contour
  6
CONTINUOUS
 10
56.750000
 20
140.000000
 11
56.750000
 21
130.000000
 39
3
 62
7
  0
LINE
  8
contour
  6
CONTINUOUS
 10
53.750000
 20
145.000000
 11
56.750000
 21
140.000000
 39
3
 62
7
  0
LINE
  8
contour
  6
CONTINUOUS
 10
53.750000
 20
145.000000
 11
56.750000
 21
150.000000
 39
3
 62
7
  0
LINE
  8
contour
  6
CONTINUOUS
 10
148.750000
 20
155.000000
 11
153.750000
 21
160.000000
 39
3
 62
7
  0
LINE
  8
contour
  6
CONTINUOUS
 10
143.750000
 20
155.000000
 11
148.750000
 21
155.000000
 39
3
 62
7
  0
LINE
  8
contour
  6
CONTINUOUS
 10
143.750000
 20
135.000000
 11
148.750000
 21
135.000000
 39
3
 62
7
  0
LINE
  8
contour
  6
CONTINUOUS
 10
148.750000
 20
135.000000
 11
153.750000
 21
130.000000
 39
3
 62
7
  0
LINE
  8
bend
  6
DOT
 10
138.750000
 20
140.000000
 11
153.750000
 21
140.000000
 39
2
 62
7
  0
LINE
  8
contour
  6
CONTINUOUS
 10
153.750000
 20
160.000000
 11
153.750000
 21
150.000000
 39
3
 62
7
  0
LINE
  8
contour
  6
CONTINUOUS
 10
153.750000
 20
140.000000
 11
153.750000
 21
130.000000
 39
3
 62
7
  0
LINE
  8
bend
  6
DOT
 10
138.750000
 20
150.000000
 11
153.750000
 21
150.000000
 39
2
 62
7
  0
LINE
  8
contour
  6
CONTINUOUS
 10
156.750000
 20
145.000000
 11
153.750000
 21
140.000000
 39
3
 62
7
  0
LINE
  8
contour
  6
CONTINUOUS
 10
156.750000
 20
145.000000
 11
153.750000
 21
150.000000
 39
3
 62
7
  0
TEXT
  8
contour
  6
CONTINUOUS
 10
102.304204
 20
145.607571
 40
5.000000
 50
0.000000
 72
0
  7
Normal#0.500000#3.000000
  1
15
 39
3
 62
7
  0
LINE
  8
contour
  6
CONTINUOUS
 10
74.750000
 20
118.000000
 11
135.750000
 21
118.000000
 39
3
 62
7
  0
LINE
  8
contour
  6
CONTINUOUS
 10
135.750000
 20
118.000000
 11
138.750000
 21
115.000000
 39
3
 62
7
  0
LINE
  8
contour
  6
CONTINUOUS
 10
135.750000
 20
102.000000
 11
138.750000
 21
105.000000
 39
3
 62
7
  0
LINE
  8
contour
  6
CONTINUOUS
 10
71.750000
 20
115.000000
 11
74.750000
 21
118.000000
 39
3
 62
7
  0
LINE
  8
contour
  6
CONTINUOUS
 10
74.750000
 20
102.000000
 11
135.750000
 21
102.000000
 39
3
 62
7
  0
LINE
  8
contour
  6
CONTINUOUS
 10
71.750000
 20
105.000000
 11
74.750000
 21
102.000000
 39
3
 62
7
  0
LINE
  8
contour
  6
CONTINUOUS
 10
66.750000
 20
120.000000
 11
71.750000
 21
115.000000
 39
3
 62
7
  0
LINE
  8
contour
  6
CONTINUOUS
 10
66.750000
 20
100.000000
 11
71.750000
 21
105.000000
 39
3
 62
7
  0
LINE
  8
contour
  6
CONTINUOUS
 10
138.750000
 20
105.000000
 11
143.750000
 21
100.000000
 39
3
 62
7
  0
LINE
  8
contour
  6
CONTINUOUS
 10
138.750000
 20
115.000000
 11
143.750000
 21
120.000000
 39
3
 62
7
  0
CIRCLE
  8
helper
  6
CONTINUOUS
 10
79.750000
 20
110.000000
 40
2.500000
 39
1
 62
7
  0
CIRCLE
  8
helper
  6
CONTINUOUS
 10
130.750000
 20
110.000000
 40
2.500000
 39
1
 62
7
  0
LINE
  8
helper
  6
CONTINUOUS
 10
79.750000
 20
118.000000
 11
79.750000
 21
102.000000
 39
1
 62
7
  0
LINE
  8
helper
  6
CONTINUOUS
 10
130.750000
 20
118.000000
 11
130.750000
 21
102.000000
 39
1
 62
7
  0
LINE
  8
helper
  6
CONTINUOUS
 10
71.750000
 20
110.000000
 11
138.750000
 21
110.000000
 39
1
 62
7
  0
LINE
  8
bend
  6
DOT
 10
71.750000
 20
115.000000
 11
71.750000
 21
105.000000
 39
2
 62
7
  0
LINE
  8
bend
  6
DOT
 10
138.750000
 20
115.000000
 11
138.750000
 21
105.000000
 39
2
 62
7
  0
LINE
  8
contour
  6
CONTINUOUS
 10
55.750000
 20
95.000000
 11
60.750000
 21
100.000000
 39
3
 62
7
  0
LINE
  8
contour
  6
CONTINUOUS
 10
60.750000
 20
100.000000
 11
66.750000
 21
100.000000
 39
3
 62
7
  0
LINE
  8
contour
  6
CONTINUOUS
 10
55.750000
 20
125.000000
 11
60.750000
 21
120.000000
 39
3
 62
7
  0
LINE
  8
contour
  6
CONTINUOUS
 10
60.750000
 20
120.000000
 11
66.750000
 21
120.000000
 39
3
 62
7
  0
LINE
  8
bend
  6
DOT
 10
55.750000
 20
115.000000
 11
71.750000
 21
115.000000
 39
2
 62
7
  0
LINE
  8
bend
  6
DOT
 10
55.750000
 20
105.000000
 11
71.750000
 21
105.000000
 39
2
 62
7
  0
TEXT
  8
contour
  6
CONTINUOUS
 10
58.700048
 20
105.890829
 40
3.000000
 50
0.000000
 72
0
  7
Normal#0.300000#1.800000
  1
Bend
 39
3
 62
7
  0
LINE
  8
contour
  6
CONTINUOUS
 10
55.750000
 20
125.000000
 11
55.750000
 21
115.000000
 39
3
 62
7
  0
LINE
  8
contour
  6
CONTINUOUS
 10
55.750000
 20
105.000000
 11
55.750000
 21
95.000000
 39
3
 62
7
  0
LINE
  8
contour
  6
CONTINUOUS
 10
52.750000
 20
110.000000
 11
55.750000
 21
105.000000
 39
3
 62
7
  0
LINE
  8
contour
  6
CONTINUOUS
 10
52.750000
 20
110.000000
 11
55.750000
 21
115.000000
 39
3
 62
7
  0
LINE
  8
contour
  6
CONTINUOUS
 10
149.750000
 20
120.000000
 11
154.750000
 21
125.000000
 39
3
 62
7
  0
LINE
  8
contour
  6
CONTINUOUS
 10
143.750000
 20
120.000000
 11
149.750000
 21
120.000000
 39
3
 62
7
  0
LINE
  8
contour
  6
CONTINUOUS
 10
143.750000
 20
100.000000
 11
149.750000
 21
100.000000
 39
3
 62
7
  0
LINE
  8
contour
  6
CONTINUOUS
 10
149.750000
 20
100.000000
 11
154.750000
 21
95.000000
 39
3
 62
7
  0
LINE
  8
bend
  6
DOT
 10
138.750000
 20
105.000000
 11
154.750000
 21
105.000000
 39
2
 62
7
  0
LINE
  8
contour
  6
CONTINUOUS
 10
154.750000
 20
125.000000
 11
154.750000
 21
115.000000
 39
3
 62
7
  0
LINE
  8
contour
  6
CONTINUOUS
 10
154.750000
 20
105.000000
 11
154.750000
 21
95.000000
 39
3
 62
7
  0
LINE
  8
bend
  6
DOT
 10
138.750000
 20
115.000000
 11
154.750000
 21
115.000000
 39
2
 62
7
  0
LINE
  8
contour
  6
CONTINUOUS
 10
157.750000
 20
110.000000
 11
154.750000
 21
105.000000
 39
3
 62
7
  0
LINE
  8
contour
  6
CONTINUOUS
 10
157.750000
 20
110.000000
 11
154.750000
 21
115.000000
 39
3
 62
7
  0
TEXT
  8
contour
  6
CONTINUOUS
 10
102.304204
 20
110.607571
 40
5.000000
 50
0.000000
 72
0
  7
Normal#0.500000#3.000000
  1
16
 39
3
 62
7
  0
LINE
  8
contour
  6
CONTINUOUS
 10
74.750000
 20
183.000000
 11
135.750000
 21
183.000000
 39
3
 62
7
  0
LINE
  8
contour
  6
CONTINUOUS
 10
135.750000
 20
183.000000
 11
138.750000
 21
180.000000
 39
3
 62
7
  0
LINE
  8
contour
  6
CONTINUOUS
 10
135.750000
 20
167.000000
 11
138.750000
 21
170.000000
 39
3
 62
7
  0
LINE
  8
contour
  6
CONTINUOUS
 10
71.750000
 20
180.000000
 11
74.750000
 21
183.000000
 39
3
 62
7
  0
LINE
  8
contour
  6
CONTINUOUS
 10
74.750000
 20
167.000000
 11
135.750000
 21
167.000000
 39
3
 62
7
  0
LINE
  8
contour
  6
CONTINUOUS
 10
71.750000
 20
170.000000
 11
74.750000
 21
167.000000
 39
3
 62
7
  0
LINE
  8
contour
  6
CONTINUOUS
 10
66.750000
 20
185.000000
 11
71.750000
 21
180.000000
 39
3
 62
7
  0
LINE
  8
contour
  6
CONTINUOUS
 10
66.750000
 20
165.000000
 11
71.750000
 21
170.000000
 39
3
 62
7
  0
LINE
  8
contour
  6
CONTINUOUS
 10
138.750000
 20
170.000000
 11
143.750000
 21
165.000000
 39
3
 62
7
  0
LINE
  8
contour
  6
CONTINUOUS
 10
138.750000
 20
180.000000
 11
143.750000
 21
185.000000
 39
3
 62
7
  0
CIRCLE
  8
helper
  6
CONTINUOUS
 10
79.750000
 20
175.000000
 40
2.500000
 39
1
 62
7
  0
CIRCLE
  8
helper
  6
CONTINUOUS
 10
130.750000
 20
175.000000
 40
2.500000
 39
1
 62
7
  0
LINE
  8
helper
  6
CONTINUOUS
 10
79.750000
 20
183.000000
 11
79.750000
 21
167.000000
 39
1
 62
7
  0
LINE
  8
helper
  6
CONTINUOUS
 10
130.750000
 20
183.000000
 11
130.750000
 21
167.000000
 39
1
 62
7
  0
LINE
  8
helper
  6
CONTINUOUS
 10
71.750000
 20
175.000000
 11
138.750000
 21
175.000000
 39
1
 62
7
  0
LINE
  8
bend
  6
DOT
 10
71.750000
 20
180.000000
 11
71.750000
 21
170.000000
 39
2
 62
7
  0
LINE
  8
bend
  6
DOT
 10
138.750000
 20
180.000000
 11
138.750000
 21
170.000000
 39
2
 62
7
  0
LINE
  8
contour
  6
CONTINUOUS
 10
56.750000
 20
160.000000
 11
61.750000
 21
165.000000
 39
3
 62
7
  0
LINE
  8
contour
  6
CONTINUOUS
 10
61.750000
 20
165.000000
 11
66.750000
 21
165.000000
 39
3
 62
7
  0
LINE
  8
contour
  6
CONTINUOUS
 10
56.750000
 20
190.000000
 11
61.750000
 21
185.000000
 39
3
 62
7
  0
LINE
  8
contour
  6
CONTINUOUS
 10
61.750000
 20
185.000000
 11
66.750000
 21
185.000000
 39
3
 62
7
  0
LINE
  8
bend
  6
DOT
 10
56.750000
 20
180.000000
 11
71.750000
 21
180.000000
 39
2
 62
7
  0
LINE
  8
bend
  6
DOT
 10
56.750000
 20
170.000000
 11
71.750000
 21
170.000000
 39
2
 62
7
  0
TEXT
  8
contour
  6
CONTINUOUS
 10
58.700048
 20
170.890829
 40
3.000000
 50
0.000000
 72
0
  7
Normal#0.300000#1.800000
  1
Bend
 39
3
 62
7
  0
LINE
  8
contour
  6
CONTINUOUS
 10
56.750000
 20
190.000000
 11
56.750000
 21
180.000000
 39
3
 62
7
  0
LINE
  8
contour
  6
CONTINUOUS
 10
56.750000
 20
170.000000
 11
56.750000
 21
160.000000
 39
3
 62
7
  0
LINE
  8
contour
  6
CONTINUOUS
 10
53.750000
 20
175.000000
 11
56.750000
 21
170.000000
 39
3
 62
7
  0
LINE
  8
contour
  6
CONTINUOUS
 10
53.750000
 20
175.000000
 11
56.750000
 21
180.000000
 39
3
 62
7
  0
LINE
  8
contour
  6
CONTINUOUS
 10
148.750000
 20
185.000000
 11
153.750000
 21
190.000000
 39
3
 62
7
  0
LINE
  8
contour
  6
CONTINUOUS
 10
143.750000
 20
185.000000
 11
148.750000
 21
185.000000
 39
3
 62
7
  0
LINE
  8
contour
  6
CONTINUOUS
 10
143.750000
 20
165.000000
 11
148.750000
 21
165.000000
 39
3
 62
7
  0
LINE
  8
contour
  6
CONTINUOUS
 10
148.750000
 20
165.000000
 11
153.750000
 21
160.000000
 39
3
 62
7
  0
LINE
  8
bend
  6
DOT
 10
138.750000
 20
170.000000
 11
153.750000
 21
170.000000
 39
2
 62
7
  0
LINE
  8
contour
  6
CONTINUOUS
 10
153.750000
 20
190.000000
 11
153.750000
 21
180.000000
 39
3
 62
7
  0
LINE
  8
contour
  6
CONTINUOUS
 10
153.750000
 20
170.000000
 11
153.750000
 21
160.000000
 39
3
 62
7
  0
LINE
  8
bend
  6
DOT
 10
138.750000
 20
180.000000
 11
153.750000
 21
180.000000
 39
2
 62
7
  0
LINE
  8
contour
  6
CONTINUOUS
 10
156.750000
 20
175.000000
 11
153.750000
 21
170.000000
 39
3
 62
7
  0
LINE
  8
contour
  6
CONTINUOUS
 10
156.750000
 20
175.000000
 11
153.750000
 21
180.000000
 39
3
 62
7
  0
TEXT
  8
contour
  6
CONTINUOUS
 10
102.304204
 20
175.607571
 40
5.000000
 50
0.000000
 72
0
  7
Normal#0.500000#3.000000
  1
15
 39
3
 62
7
  0
LINE
  8
contour
  6
CONTINUOUS
 10
74.750000
 20
213.000000
 11
135.750000
 21
213.000000
 39
3
 62
7
  0
LINE
  8
contour
  6
CONTINUOUS
 10
135.750000
 20
213.000000
 11
138.750000
 21
210.000000
 39
3
 62
7
  0
LINE
  8
contour
  6
CONTINUOUS
 10
135.750000
 20
197.000000
 11
138.750000
 21
200.000000
 39
3
 62
7
  0
LINE
  8
contour
  6
CONTINUOUS
 10
71.750000
 20
210.000000
 11
74.750000
 21
213.000000
 39
3
 62
7
  0
LINE
  8
contour
  6
CONTINUOUS
 10
74.750000
 20
197.000000
 11
135.750000
 21
197.000000
 39
3
 62
7
  0
LINE
  8
contour
  6
CONTINUOUS
 10
71.750000
 20
200.000000
 11
74.750000
 21
197.000000
 39
3
 62
7
  0
LINE
  8
contour
  6
CONTINUOUS
 10
66.750000
 20
215.000000
 11
71.750000
 21
210.000000
 39
3
 62
7
  0
LINE
  8
contour
  6
CONTINUOUS
 10
66.750000
 20
195.000000
 11
71.750000
 21
200.000000
 39
3
 62
7
  0
LINE
  8
contour
  6
CONTINUOUS
 10
138.750000
 20
200.000000
 11
143.750000
 21
195.000000
 39
3
 62
7
  0
LINE
  8
contour
  6
CONTINUOUS
 10
138.750000
 20
210.000000
 11
143.750000
 21
215.000000
 39
3
 62
7
  0
CIRCLE
  8
helper
  6
CONTINUOUS
 10
79.750000
 20
205.000000
 40
2.500000
 39
1
 62
7
  0
CIRCLE
  8
helper
  6
CONTINUOUS
 10
130.750000
 20
205.000000
 40
2.500000
 39
1
 62
7
  0
LINE
  8
helper
  6
CONTINUOUS
 10
79.750000
 20
213.000000
 11
79.750000
 21
197.000000
 39
1
 62
7
  0
LINE
  8
helper
  6
CONTINUOUS
 10
130.750000
 20
213.000000
 11
130.750000
 21
197.000000
 39
1
 62
7
  0
LINE
  8
helper
  6
CONTINUOUS
 10
71.750000
 20
205.000000
 11
138.750000
 21
205.000000
 39
1
 62
7
  0
LINE
  8
bend
  6
DOT
 10
71.750000
 20
210.000000
 11
71.750000
 21
200.000000
 39
2
 62
7
  0
LINE
  8
bend
  6
DOT
 10
138.750000
 20
210.000000
 11
138.750000
 21
200.000000
 39
2
 62
7
  0
LINE
  8
contour
  6
CONTINUOUS
 10
56.750000
 20
190.000000
 11
61.750000
 21
195.000000
 39
3
 62
7
  0
LINE
  8
contour
  6
CONTINUOUS
 10
61.750000
 20
195.000000
 11
66.750000
 21
195.000000
 39
3
 62
7
  0
LINE
  8
contour
  6
CONTINUOUS
 10
56.750000
 20
220.000000
 11
61.750000
 21
215.000000
 39
3
 62
7
  0
LINE
  8
contour
  6
CONTINUOUS
 10
61.750000
 20
215.000000
 11
66.750000
 21
215.000000
 39
3
 62
7
  0
LINE
  8
bend
  6
DOT
 10
56.750000
 20
210.000000
 11
71.750000
 21
210.000000
 39
2
 62
7
  0
LINE
  8
bend
  6
DOT
 10
56.750000
 20
200.000000
 11
71.750000
 21
200.000000
 39
2
 62
7
  0
TEXT
  8
contour
  6
CONTINUOUS
 10
58.700048
 20
200.890829
 40
3.000000
 50
0.000000
 72
0
  7
Normal#0.300000#1.800000
  1
Bend
 39
3
 62
7
  0
LINE
  8
contour
  6
CONTINUOUS
 10
56.750000
 20
220.000000
 11
56.750000
 21
210.000000
 39
3
 62
7
  0
LINE
  8
contour
  6
CONTINUOUS
 10
56.750000
 20
200.000000
 11
56.750000
 21
190.000000
 39
3
 62
7
  0
LINE
  8
contour
  6
CONTINUOUS
 10
53.750000
 20
205.000000
 11
56.750000
 21
200.000000
 39
3
 62
7
  0
LINE
  8
contour
  6
CONTINUOUS
 10
53.750000
 20
205.000000
 11
56.750000
 21
210.000000
 39
3
 62
7
  0
LINE
  8
contour
  6
CONTINUOUS
 10
148.750000
 20
215.000000
 11
153.750000
 21
220.000000
 39
3
 62
7
  0
LINE
  8
contour
  6
CONTINUOUS
 10
143.750000
 20
215.000000
 11
148.750000
 21
215.000000
 39
3
 62
7
  0
LINE
  8
contour
  6
CONTINUOUS
 10
143.750000
 20
195.000000
 11
148.750000
 21
195.000000
 39
3
 62
7
  0
LINE
  8
contour
  6
CONTINUOUS
 10
148.750000
 20
195.000000
 11
153.750000
 21
190.000000
 39
3
 62
7
  0
LINE
  8
bend
  6
DOT
 10
138.750000
 20
200.000000
 11
153.750000
 21
200.000000
 39
2
 62
7
  0
LINE
  8
contour
  6
CONTINUOUS
 10
153.750000
 20
220.000000
 11
153.750000
 21
210.000000
 39
3
 62
7
  0
LINE
  8
contour
  6
CONTINUOUS
 10
153.750000
 20
200.000000
 11
153.750000
 21
190.000000
 39
3
 62
7
  0
LINE
  8
bend
  6
DOT
 10
138.750000
 20
210.000000
 11
153.750000
 21
210.000000
 39
2
 62
7
  0
LINE
  8
contour
  6
CONTINUOUS
 10
156.750000
 20
205.000000
 11
153.750000
 21
200.000000
 39
3
 62
7
  0
LINE
  8
contour
  6
CONTINUOUS
 10
156.750000
 20
205.000000
 11
153.750000
 21
210.000000
 39
3
 62
7
  0
TEXT
  8
contour
  6
CONTINUOUS
 10
102.304204
 20
205.607571
 40
5.000000
 50
0.000000
 72
0
  7
Normal#0.500000#3.000000
  1
15
 39
3
 62
7
  0
LINE
  8
contour
  6
CONTINUOUS
 10
74.750000
 20
243.000000
 11
135.750000
 21
243.000000
 39
3
 62
7
  0
LINE
  8
contour
  6
CONTINUOUS
 10
135.750000
 20
243.000000
 11
138.750000
 21
240.000000
 39
3
 62
7
  0
LINE
  8
contour
  6
CONTINUOUS
 10
135.750000
 20
227.000000
 11
138.750000
 21
230.000000
 39
3
 62
7
  0
LINE
  8
contour
  6
CONTINUOUS
 10
71.750000
 20
240.000000
 11
74.750000
 21
243.000000
 39
3
 62
7
  0
LINE
  8
contour
  6
CONTINUOUS
 10
74.750000
 20
227.000000
 11
135.750000
 21
227.000000
 39
3
 62
7
  0
LINE
  8
contour
  6
CONTINUOUS
 10
71.750000
 20
230.000000
 11
74.750000
 21
227.000000
 39
3
 62
7
  0
LINE
  8
contour
  6
CONTINUOUS
 10
66.750000
 20
245.000000
 11
71.750000
 21
240.000000
 39
3
 62
7
  0
LINE
  8
contour
  6
CONTINUOUS
 10
66.750000
 20
225.000000
 11
71.750000
 21
230.000000
 39
3
 62
7
  0
LINE
  8
contour
  6
CONTINUOUS
 10
138.750000
 20
230.000000
 11
143.750000
 21
225.000000
 39
3
 62
7
  0
LINE
  8
contour
  6
CONTINUOUS
 10
138.750000
 20
240.000000
 11
143.750000
 21
245.000000
 39
3
 62
7
  0
CIRCLE
  8
helper
  6
CONTINUOUS
 10
79.750000
 20
235.000000
 40
2.500000
 39
1
 62
7
  0
CIRCLE
  8
helper
  6
CONTINUOUS
 10
130.750000
 20
235.000000
 40
2.500000
 39
1
 62
7
  0
LINE
  8
helper
  6
CONTINUOUS
 10
79.750000
 20
243.000000
 11
79.750000
 21
227.000000
 39
1
 62
7
  0
LINE
  8
helper
  6
CONTINUOUS
 10
130.750000
 20
243.000000
 11
130.750000
 21
227.000000
 39
1
 62
7
  0
LINE
  8
helper
  6
CONTINUOUS
 10
71.750000
 20
235.000000
 11
138.750000
 21
235.000000
 39
1
 62
7
  0
LINE
  8
bend
  6
DOT
 10
71.750000
 20
240.000000
 11
71.750000
 21
230.000000
 39
2
 62
7
  0
LINE
  8
bend
  6
DOT
 10
138.750000
 20
240.000000
 11
138.750000
 21
230.000000
 39
2
 62
7
  0
LINE
  8
contour
  6
CONTINUOUS
 10
56.750000
 20
220.000000
 11
61.750000
 21
225.000000
 39
3
 62
7
  0
LINE
  8
contour
  6
CONTINUOUS
 10
61.750000
 20
225.000000
 11
66.750000
 21
225.000000
 39
3
 62
7
  0
LINE
  8
contour
  6
CONTINUOUS
 10
56.750000
 20
250.000000
 11
61.750000
 21
245.000000
 39
3
 62
7
  0
LINE
  8
contour
  6
CONTINUOUS
 10
61.750000
 20
245.000000
 11
66.750000
 21
245.000000
 39
3
 62
7
  0
LINE
  8
bend
  6
DOT
 10
56.750000
 20
240.000000
 11
71.750000
 21
240.000000
 39
2
 62
7
  0
LINE
  8
bend
  6
DOT
 10
56.750000
 20
230.000000
 11
71.750000
 21
230.000000
 39
2
 62
7
  0
TEXT
  8
contour
  6
CONTINUOUS
 10
58.700048
 20
230.890829
 40
3.000000
 50
0.000000
 72
0
  7
Normal#0.300000#1.800000
  1
Bend
 39
3
 62
7
  0
LINE
  8
contour
  6
CONTINUOUS
 10
56.750000
 20
250.000000
 11
56.750000
 21
240.000000
 39
3
 62
7
  0
LINE
  8
contour
  6
CONTINUOUS
 10
56.750000
 20
230.000000
 11
56.750000
 21
220.000000
 39
3
 62
7
  0
LINE
  8
contour
  6
CONTINUOUS
 10
53.750000
 20
235.000000
 11
56.750000
 21
230.000000
 39
3
 62
7
  0
LINE
  8
contour
  6
CONTINUOUS
 10
53.750000
 20
235.000000
 11
56.750000
 21
240.000000
 39
3
 62
7
  0
LINE
  8
contour
  6
CONTINUOUS
 10
148.750000
 20
245.000000
 11
153.750000
 21
250.000000
 39
3
 62
7
  0
LINE
  8
contour
  6
CONTINUOUS
 10
143.750000
 20
245.000000
 11
148.750000
 21
245.000000
 39
3
 62
7
  0
LINE
  8
contour
  6
CONTINUOUS
 10
143.750000
 20
225.000000
 11
148.750000
 21
225.000000
 39
3
 62
7
  0
LINE
  8
contour
  6
CONTINUOUS
 10
148.750000
 20
225.000000
 11
153.750000
 21
220.000000
 39
3
 62
7
  0
LINE
  8
bend
  6
DOT
 10
138.750000
 20
230.000000
 11
153.750000
 21
230.000000
 39
2
 62
7
  0
LINE
  8
contour
  6
CONTINUOUS
 10
153.750000
 20
250.000000
 11
153.750000
 21
240.000000
 39
3
 62
7
  0
LINE
  8
contour
  6
CONTINUOUS
 10
153.750000
 20
230.000000
 11
153.750000
 21
220.000000
 39
3
 62
7
  0
LINE
  8
bend
  6
DOT
 10
138.750000
 20
240.000000
 11
153.750000
 21
240.000000
 39
2
 62
7
  0
LINE
  8
contour
  6
CONTINUOUS
 10
156.750000
 20
235.000000
 11
153.750000
 21
230.000000
 39
3
 62
7
  0
LINE
  8
contour
  6
CONTINUOUS
 10
156.750000
 20
235.000000
 11
153.750000
 21
240.000000
 39
3
 62
7
  0
TEXT
  8
contour
  6
CONTINUOUS
 10
102.304204
 20
235.607571
 40
5.000000
 50
0.000000
 72
0
  7
Normal#0.500000#3.000000
  1
15
 39
3
 62
7
  0
LINE
  8
contour
  6
CONTINUOUS
 10
74.750000
 20
88.000000
 11
135.750000
 21
88.000000
 39
3
 62
7
  0
LINE
  8
contour
  6
CONTINUOUS
 10
135.750000
 20
88.000000
 11
138.750000
 21
85.000000
 39
3
 62
7
  0
LINE
  8
contour
  6
CONTINUOUS
 10
135.750000
 20
72.000000
 11
138.750000
 21
75.000000
 39
3
 62
7
  0
LINE
  8
contour
  6
CONTINUOUS
 10
71.750000
 20
85.000000
 11
74.750000
 21
88.000000
 39
3
 62
7
  0
LINE
  8
contour
  6
CONTINUOUS
 10
74.750000
 20
72.000000
 11
135.750000
 21
72.000000
 39
3
 62
7
  0
LINE
  8
contour
  6
CONTINUOUS
 10
71.750000
 20
75.000000
 11
74.750000
 21
72.000000
 39
3
 62
7
  0
LINE
  8
contour
  6
CONTINUOUS
 10
66.750000
 20
90.000000
 11
71.750000
 21
85.000000
 39
3
 62
7
  0
LINE
  8
contour
  6
CONTINUOUS
 10
66.750000
 20
70.000000
 11
71.750000
 21
75.000000
 39
3
 62
7
  0
LINE
  8
contour
  6
CONTINUOUS
 10
138.750000
 20
75.000000
 11
143.750000
 21
70.000000
 39
3
 62
7
  0
LINE
  8
contour
  6
CONTINUOUS
 10
138.750000
 20
85.000000
 11
143.750000
 21
90.000000
 39
3
 62
7
  0
CIRCLE
  8
helper
  6
CONTINUOUS
 10
79.750000
 20
80.000000
 40
2.500000
 39
1
 62
7
  0
CIRCLE
  8
helper
  6
CONTINUOUS
 10
130.750000
 20
80.000000
 40
2.500000
 39
1
 62
7
  0
LINE
  8
helper
  6
CONTINUOUS
 10
79.750000
 20
88.000000
 11
79.750000
 21
72.000000
 39
1
 62
7
  0
LINE
  8
helper
  6
CONTINUOUS
 10
130.750000
 20
88.000000
 11
130.750000
 21
72.000000
 39
1
 62
7
  0
LINE
  8
helper
  6
CONTINUOUS
 10
71.750000
 20
80.000000
 11
138.750000
 21
80.000000
 39
1
 62
7
  0
LINE
  8
bend
  6
DOT
 10
71.750000
 20
85.000000
 11
71.750000
 21
75.000000
 39
2
 62
7
  0
LINE
  8
bend
  6
DOT
 10
138.750000
 20
85.000000
 11
138.750000
 21
75.000000
 39
2
 62
7
  0
LINE
  8
contour
  6
CONTINUOUS
 10
55.750000
 20
65.000000
 11
60.750000
 21
70.000000
 39
3
 62
7
  0
LINE
  8
contour
  6
CONTINUOUS
 10
60.750000
 20
70.000000
 11
66.750000
 21
70.000000
 39
3
 62
7
  0
LINE
  8
contour
  6
CONTINUOUS
 10
55.750000
 20
95.000000
 11
60.750000
 21
90.000000
 39
3
 62
7
  0
LINE
  8
contour
  6
CONTINUOUS
 10
60.750000
 20
90.000000
 11
66.750000
 21
90.000000
 39
3
 62
7
  0
LINE
  8
bend
  6
DOT
 10
55.750000
 20
85.000000
 11
71.750000
 21
85.000000
 39
2
 62
7
  0
LINE
  8
bend
  6
DOT
 10
55.750000
 20
75.000000
 11
71.750000
 21
75.000000
 39
2
 62
7
  0
TEXT
  8
contour
  6
CONTINUOUS
 10
58.700048
 20
75.890829
 40
3.000000
 50
0.000000
 72
0
  7
Normal#0.300000#1.800000
  1
Bend
 39
3
 62
7
  0
LINE
  8
contour
  6
CONTINUOUS
 10
55.750000
 20
95.000000
 11
55.750000
 21
85.000000
 39
3
 62
7
  0
LINE
  8
contour
  6
CONTINUOUS
 10
55.750000
 20
75.000000
 11
55.750000
 21
65.000000
 39
3
 62
7
  0
LINE
  8
contour
  6
CONTINUOUS
 10
52.750000
 20
80.000000
 11
55.750000
 21
75.000000
 39
3
 62
7
  0
LINE
  8
contour
  6
CONTINUOUS
 10
52.750000
 20
80.000000
 11
55.750000
 21
85.000000
 39
3
 62
7
  0
LINE
  8
contour
  6
CONTINUOUS
 10
149.750000
 20
90.000000
 11
154.750000
 21
95.000000
 39
3
 62
7
  0
LINE
  8
contour
  6
CONTINUOUS
 10
143.750000
 20
90.000000
 11
149.750000
 21
90.000000
 39
3
 62
7
  0
LINE
  8
contour
  6
CONTINUOUS
 10
143.750000
 20
70.000000
 11
149.750000
 21
70.000000
 39
3
 62
7
  0
LINE
  8
contour
  6
CONTINUOUS
 10
149.750000
 20
70.000000
 11
154.750000
 21
65.000000
 39
3
 62
7
  0
LINE
  8
bend
  6
DOT
 10
138.750000
 20
75.000000
 11
154.750000
 21
75.000000
 39
2
 62
7
  0
LINE
  8
contour
  6
CONTINUOUS
 10
154.750000
 20
95.000000
 11
154.750000
 21
85.000000
 39
3
 62
7
  0
LINE
  8
contour
  6
CONTINUOUS
 10
154.750000
 20
75.000000
 11
154.750000
 21
65.000000
 39
3
 62
7
  0
LINE
  8
bend
  6
DOT
 10
138.750000
 20
85.000000
 11
154.750000
 21
85.000000
 39
2
 62
7
  0
LINE
  8
contour
  6
CONTINUOUS
 10
157.750000
 20
80.000000
 11
154.750000
 21
75.000000
 39
3
 62
7
  0
LINE
  8
contour
  6
CONTINUOUS
 10
157.750000
 20
80.000000
 11
154.750000
 21
85.000000
 39
3
 62
7
  0
TEXT
  8
contour
  6
CONTINUOUS
 10
102.304204
 20
80.607571
 40
5.000000
 50
0.000000
 72
0
  7
Normal#0.500000#3.000000
  1
16
 39
3
 62
7
  0
LINE
  8
contour
  6
CONTINUOUS
 10
74.750000
 20
58.000000
 11
135.750000
 21
58.000000
 39
3
 62
7
  0
LINE
  8
contour
  6
CONTINUOUS
 10
135.750000
 20
58.000000
 11
138.750000
 21
55.000000
 39
3
 62
7
  0
LINE
  8
contour
  6
CONTINUOUS
 10
135.750000
 20
42.000000
 11
138.750000
 21
45.000000
 39
3
 62
7
  0
LINE
  8
contour
  6
CONTINUOUS
 10
71.750000
 20
55.000000
 11
74.750000
 21
58.000000
 39
3
 62
7
  0
LINE
  8
contour
  6
CONTINUOUS
 10
74.750000
 20
42.000000
 11
135.750000
 21
42.000000
 39
3
 62
7
  0
LINE
  8
contour
  6
CONTINUOUS
 10
71.750000
 20
45.000000
 11
74.750000
 21
42.000000
 39
3
 62
7
  0
LINE
  8
contour
  6
CONTINUOUS
 10
66.750000
 20
60.000000
 11
71.750000
 21
55.000000
 39
3
 62
7
  0
LINE
  8
contour
  6
CONTINUOUS
 10
66.750000
 20
40.000000
 11
71.750000
 21
45.000000
 39
3
 62
7
  0
LINE
  8
contour
  6
CONTINUOUS
 10
138.750000
 20
45.000000
 11
143.750000
 21
40.000000
 39
3
 62
7
  0
LINE
  8
contour
  6
CONTINUOUS
 10
138.750000
 20
55.000000
 11
143.750000
 21
60.000000
 39
3
 62
7
  0
CIRCLE
  8
helper
  6
CONTINUOUS
 10
79.750000
 20
50.000000
 40
2.500000
 39
1
 62
7
  0
CIRCLE
  8
helper
  6
CONTINUOUS
 10
130.750000
 20
50.000000
 40
2.500000
 39
1
 62
7
  0
LINE
  8
helper
  6
CONTINUOUS
 10
79.750000
 20
58.000000
 11
79.750000
 21
42.000000
 39
1
 62
7
  0
LINE
  8
helper
  6
CONTINUOUS
 10
130.750000
 20
58.000000
 11
130.750000
 21
42.000000
 39
1
 62
7
  0
LINE
  8
helper
  6
CONTINUOUS
 10
71.750000
 20
50.000000
 11
138.750000
 21
50.000000
 39
1
 62
7
  0
LINE
  8
bend
  6
DOT
 10
71.750000
 20
55.000000
 11
71.750000
 21
45.000000
 39
2
 62
7
  0
LINE
  8
bend
  6
DOT
 10
138.750000
 20
55.000000
 11
138.750000
 21
45.000000
 39
2
 62
7
  0
LINE
  8
contour
  6
CONTINUOUS
 10
55.750000
 20
35.000000
 11
60.750000
 21
40.000000
 39
3
 62
7
  0
LINE
  8
contour
  6
CONTINUOUS
 10
60.750000
 20
40.000000
 11
66.750000
 21
40.000000
 39
3
 62
7
  0
LINE
  8
contour
  6
CONTINUOUS
 10
55.750000
 20
65.000000
 11
60.750000
 21
60.000000
 39
3
 62
7
  0
LINE
  8
contour
  6
CONTINUOUS
 10
60.750000
 20
60.000000
 11
66.750000
 21
60.000000
 39
3
 62
7
  0
LINE
  8
bend
  6
DOT
 10
55.750000
 20
55.000000
 11
71.750000
 21
55.000000
 39
2
 62
7
  0
LINE
  8
bend
  6
DOT
 10
55.750000
 20
45.000000
 11
71.750000
 21
45.000000
 39
2
 62
7
  0
TEXT
  8
contour
  6
CONTINUOUS
 10
58.700048
 20
45.890829
 40
3.000000
 50
0.000000
 72
0
  7
Normal#0.300000#1.800000
  1
Bend
 39
3
 62
7
  0
LINE
  8
contour
  6
CONTINUOUS
 10
55.750000
 20
65.000000
 11
55.750000
 21
55.000000
 39
3
 62
7
  0
LINE
  8
contour
  6
CONTINUOUS
 10
55.750000
 20
45.000000
 11
55.750000
 21
35.000000
 39
3
 62
7
  0
LINE
  8
contour
  6
CONTINUOUS
 10
52.750000
 20
50.000000
 11
55.750000
 21
45.000000
 39
3
 62
7
  0
LINE
  8
contour
  6
CONTINUOUS
 10
52.750000
 20
50.000000
 11
55.750000
 21
55.000000
 39
3
 62
7
  0
LINE
  8
contour
  6
CONTINUOUS
 10
149.750000
 20
60.000000
 11
154.750000
 21
65.000000
 39
3
 62
7
  0
LINE
  8
contour
  6
CONTINUOUS
 10
143.750000
 20
60.000000
 11
149.750000
 21
60.000000
 39
3
 62
7
  0
LINE
  8
contour
  6
CONTINUOUS
 10
143.750000
 20
40.000000
 11
149.750000
 21
40.000000
 39
3
 62
7
  0
LINE
  8
contour
  6
CONTINUOUS
 10
149.750000
 20
40.000000
 11
154.750000
 21
35.000000
 39
3
 62
7
  0
LINE
  8
bend
  6
DOT
 10
138.750000
 20
45.000000
 11
154.750000
 21
45.000000
 39
2
 62
7
  0
LINE
  8
contour
  6
CONTINUOUS
 10
154.750000
 20
65.000000
 11
154.750000
 21
55.000000
 39
3
 62
7
  0
LINE
  8
contour
  6
CONTINUOUS
 10
154.750000
 20
45.000000
 11
154.750000
 21
35.000000
 39
3
 62
7
  0
LINE
  8
bend
  6
DOT
 10
138.750000
 20
55.000000
 11
154.750000
 21
55.000000
 39
2
 62
7
  0
LINE
  8
contour
  6
CONTINUOUS
 10
157.750000
 20
50.000000
 11
154.750000
 21
45.000000
 39
3
 62
7
  0
LINE
  8
contour
  6
CONTINUOUS
 10
157.750000
 20
50.000000
 11
154.750000
 21
55.000000
 39
3
 62
7
  0
TEXT
  8
contour
  6
CONTINUOUS
 10
102.304204
 20
50.607571
 40
5.000000
 50
0.000000
 72
0
  7
Normal#0.500000#3.000000
  1
16
 39
3
 62
7
  0
LINE
  8
contour
  6
CONTINUOUS
 10
74.750000
 20
28.000000
 11
135.750000
 21
28.000000
 39
3
 62
7
  0
LINE
  8
contour
  6
CONTINUOUS
 10
135.750000
 20
28.000000
 11
138.750000
 21
25.000000
 39
3
 62
7
  0
LINE
  8
contour
  6
CONTINUOUS
 10
135.750000
 20
12.000000
 11
138.750000
 21
15.000000
 39
3
 62
7
  0
LINE
  8
contour
  6
CONTINUOUS
 10
71.750000
 20
25.000000
 11
74.750000
 21
28.000000
 39
3
 62
7
  0
LINE
  8
contour
  6
CONTINUOUS
 10
74.750000
 20
12.000000
 11
135.750000
 21
12.000000
 39
3
 62
7
  0
LINE
  8
contour
  6
CONTINUOUS
 10
71.750000
 20
15.000000
 11
74.750000
 21
12.000000
 39
3
 62
7
  0
LINE
  8
contour
  6
CONTINUOUS
 10
66.750000
 20
30.000000
 11
71.750000
 21
25.000000
 39
3
 62
7
  0
LINE
  8
contour
  6
CONTINUOUS
 10
66.750000
 20
10.000000
 11
71.750000
 21
15.000000
 39
3
 62
7
  0
LINE
  8
contour
  6
CONTINUOUS
 10
138.750000
 20
15.000000
 11
143.750000
 21
10.000000
 39
3
 62
7
  0
LINE
  8
contour
  6
CONTINUOUS
 10
138.750000
 20
25.000000
 11
143.750000
 21
30.000000
 39
3
 62
7
  0
CIRCLE
  8
helper
  6
CONTINUOUS
 10
79.750000
 20
20.000000
 40
2.500000
 39
1
 62
7
  0
CIRCLE
  8
helper
  6
CONTINUOUS
 10
130.750000
 20
20.000000
 40
2.500000
 39
1
 62
7
  0
LINE
  8
helper
  6
CONTINUOUS
 10
79.750000
 20
28.000000
 11
79.750000
 21
12.000000
 39
1
 62
7
  0
LINE
  8
helper
  6
CONTINUOUS
 10
130.750000
 20
28.000000
 11
130.750000
 21
12.000000
 39
1
 62
7
  0
LINE
  8
helper
  6
CONTINUOUS
 10
71.750000
 20
20.000000
 11
138.750000
 21
20.000000
 39
1
 62
7
  0
LINE
  8
bend
  6
DOT
 10
71.750000
 20
25.000000
 11
71.750000
 21
15.000000
 39
2
 62
7
  0
LINE
  8
bend
  6
DOT
 10
138.750000
 20
25.000000
 11
138.750000
 21
15.000000
 39
2
 62
7
  0
LINE
  8
contour
  6
CONTINUOUS
 10
55.750000
 20
5.000000
 11
60.750000
 21
10.000000
 39
3
 62
7
  0
LINE
  8
contour
  6
CONTINUOUS
 10
60.750000
 20
10.000000
 11
66.750000
 21
10.000000
 39
3
 62
7
  0
LINE
  8
contour
  6
CONTINUOUS
 10
55.750000
 20
35.000000
 11
60.750000
 21
30.000000
 39
3
 62
7
  0
LINE
  8
contour
  6
CONTINUOUS
 10
60.750000
 20
30.000000
 11
66.750000
 21
30.000000
 39
3
 62
7
  0
LINE
  8
bend
  6
DOT
 10
55.750000
 20
25.000000
 11
71.750000
 21
25.000000
 39
2
 62
7
  0
LINE
  8
bend
  6
DOT
 10
55.750000
 20
15.000000
 11
71.750000
 21
15.000000
 39
2
 62
7
  0
TEXT
  8
contour
  6
CONTINUOUS
 10
58.700048
 20
15.890829
 40
3.000000
 50
0.000000
 72
0
  7
Normal#0.300000#1.800000
  1
Bend
 39
3
 62
7
  0
LINE
  8
contour
  6
CONTINUOUS
 10
55.750000
 20
35.000000
 11
55.750000
 21
25.000000
 39
3
 62
7
  0
LINE
  8
contour
  6
CONTINUOUS
 10
55.750000
 20
15.000000
 11
55.750000
 21
5.000000
 39
3
 62
7
  0
LINE
  8
contour
  6
CONTINUOUS
 10
52.750000
 20
20.000000
 11
55.750000
 21
15.000000
 39
3
 62
7
  0
LINE
  8
contour
  6
CONTINUOUS
 10
52.750000
 20
20.000000
 11
55.750000
 21
25.000000
 39
3
 62
7
  0
LINE
  8
contour
  6
CONTINUOUS
 10
149.750000
 20
30.000000
 11
154.750000
 21
35.000000
 39
3
 62
7
  0
LINE
  8
contour
  6
CONTINUOUS
 10
143.750000
 20
30.000000
 11
149.750000
 21
30.000000
 39
3
 62
7
  0
LINE
  8
contour
  6
CONTINUOUS
 10
143.750000
 20
10.000000
 11
149.750000
 21
10.000000
 39
3
 62
7
  0
LINE
  8
contour
  6
CONTINUOUS
 10
149.750000
 20
10.000000
 11
154.750000
 21
5.000000
 39
3
 62
7
  0
LINE
  8
bend
  6
DOT
 10
138.750000
 20
15.000000
 11
154.750000
 21
15.000000
 39
2
 62
7
  0
LINE
  8
contour
  6
CONTINUOUS
 10
154.750000
 20
35.000000
 11
154.750000
 21
25.000000
 39
3
 62
7
  0
LINE
  8
contour
  6
CONTINUOUS
 10
154.750000
 20
15.000000
 11
154.750000
 21
5.000000
 39
3
 62
7
  0
LINE
  8
bend
  6
DOT
 10
138.750000
 20
25.000000
 11
154.750000
 21
25.000000
 39
2
 62
7
  0
LINE
  8
contour
  6
CONTINUOUS
 10
157.750000
 20
20.000000
 11
154.750000
 21
15.000000
 39
3
 62
7
  0
LINE
  8
contour
  6
CONTINUOUS
 10
157.750000
 20
20.000000
 11
154.750000
 21
25.000000
 39
3
 62
7
  0
TEXT
  8
contour
  6
CONTINUOUS
 10
102.304204
 20
20.607571
 40
5.000000
 50
0.000000
 72
0
  7
Normal#0.500000#3.000000
  1
16
 39
3
 62
7
  0
LINE
  8
contour
  6
CONTINUOUS
 10
74.750000
 20
-117.000000
 11
135.750000
 21
-117.000000
 39
3
 62
7
  0
LINE
  8
contour
  6
CONTINUOUS
 10
135.750000
 20
-117.000000
 11
138.750000
 21
-120.000000
 39
3
 62
7
  0
LINE
  8
contour
  6
CONTINUOUS
 10
135.750000
 20
-133.000000
 11
138.750000
 21
-130.000000
 39
3
 62
7
  0
LINE
  8
contour
  6
CONTINUOUS
 10
71.750000
 20
-120.000000
 11
74.750000
 21
-117.000000
 39
3
 62
7
  0
LINE
  8
contour
  6
CONTINUOUS
 10
74.750000
 20
-133.000000
 11
135.750000
 21
-133.000000
 39
3
 62
7
  0
LINE
  8
contour
  6
CONTINUOUS
 10
71.750000
 20
-130.000000
 11
74.750000
 21
-133.000000
 39
3
 62
7
  0
LINE
  8
contour
  6
CONTINUOUS
 10
66.750000
 20
-115.000000
 11
71.750000
 21
-120.000000
 39
3
 62
7
  0
LINE
  8
contour
  6
CONTINUOUS
 10
66.750000
 20
-135.000000
 11
71.750000
 21
-130.000000
 39
3
 62
7
  0
LINE
  8
contour
  6
CONTINUOUS
 10
138.750000
 20
-130.000000
 11
143.750000
 21
-135.000000
 39
3
 62
7
  0
LINE
  8
contour
  6
CONTINUOUS
 10
138.750000
 20
-120.000000
 11
143.750000
 21
-115.000000
 39
3
 62
7
  0
CIRCLE
  8
helper
  6
CONTINUOUS
 10
79.750000
 20
-125.000000
 40
2.500000
 39
1
 62
7
  0
CIRCLE
  8
helper
  6
CONTINUOUS
 10
130.750000
 20
-125.000000
 40
2.500000
 39
1
 62
7
  0
LINE
  8
helper
  6
CONTINUOUS
 10
79.750000
 20
-117.000000
 11
79.750000
 21
-133.000000
 39
1
 62
7
  0
LINE
  8
helper
  6
CONTINUOUS
 10
130.750000
 20
-117.000000
 11
130.750000
 21
-133.000000
 39
1
 62
7
  0
LINE
  8
helper
  6
CONTINUOUS
 10
71.750000
 20
-125.000000
 11
138.750000
 21
-125.000000
 39
1
 62
7
  0
LINE
  8
bend
  6
DOT
 10
71.750000
 20
-120.000000
 11
71.750000
 21
-130.000000
 39
2
 62
7
  0
LINE
  8
bend
  6
DOT
 10
138.750000
 20
-120.000000
 11
138.750000
 21
-130.000000
 39
2
 62
7
  0
LINE
  8
contour
  6
CONTINUOUS
 10
74.750000
 20
-152.000000
 11
135.750000
 21
-152.000000
 39
3
 62
7
  0
LINE
  8
contour
  6
CONTINUOUS
 10
135.750000
 20
-152.000000
 11
138.750000
 21
-155.000000
 39
3
 62
7
  0
LINE
  8
contour
  6
CONTINUOUS
 10
135.750000
 20
-168.000000
 11
138.750000
 21
-165.000000
 39
3
 62
7
  0
LINE
  8
contour
  6
CONTINUOUS
 10
71.750000
 20
-155.000000
 11
74.750000
 21
-152.000000
 39
3
 62
7
  0
LINE
  8
contour
  6
CONTINUOUS
 10
74.750000
 20
-168.000000
 11
135.750000
 21
-168.000000
 39
3
 62
7
  0
LINE
  8
contour
  6
CONTINUOUS
 10
71.750000
 20
-165.000000
 11
74.750000
 21
-168.000000
 39
3
 62
7
  0
LINE
  8
contour
  6
CONTINUOUS
 10
66.750000
 20
-150.000000
 11
71.750000
 21
-155.000000
 39
3
 62
7
  0
LINE
  8
contour
  6
CONTINUOUS
 10
66.750000
 20
-170.000000
 11
71.750000
 21
-165.000000
 39
3
 62
7
  0
LINE
  8
contour
  6
CONTINUOUS
 10
138.750000
 20
-165.000000
 11
143.750000
 21
-170.000000
 39
3
 62
7
  0
LINE
  8
contour
  6
CONTINUOUS
 10
138.750000
 20
-155.000000
 11
143.750000
 21
-150.000000
 39
3
 62
7
  0
CIRCLE
  8
helper
  6
CONTINUOUS
 10
79.750000
 20
-160.000000
 40
2.500000
 39
1
 62
7
  0
CIRCLE
  8
helper
  6
CONTINUOUS
 10
130.750000
 20
-160.000000
 40
2.500000
 39
1
 62
7
  0
LINE
  8
helper
  6
CONTINUOUS
 10
79.750000
 20
-152.000000
 11
79.750000
 21
-168.000000
 39
1
 62
7
  0
LINE
  8
helper
  6
CONTINUOUS
 10
130.750000
 20
-152.000000
 11
130.750000
 21
-168.000000
 39
1
 62
7
  0
LINE
  8
helper
  6
CONTINUOUS
 10
71.750000
 20
-160.000000
 11
138.750000
 21
-160.000000
 39
1
 62
7
  0
LINE
  8
bend
  6
DOT
 10
71.750000
 20
-155.000000
 11
71.750000
 21
-165.000000
 39
2
 62
7
  0
LINE
  8
bend
  6
DOT
 10
138.750000
 20
-155.000000
 11
138.750000
 21
-165.000000
 39
2
 62
7
  0
LINE
  8
contour
  6
CONTINUOUS
 10
74.750000
 20
-87.000000
 11
135.750000
 21
-87.000000
 39
3
 62
7
  0
LINE
  8
contour
  6
CONTINUOUS
 10
135.750000
 20
-87.000000
 11
138.750000
 21
-90.000000
 39
3
 62
7
  0
LINE
  8
contour
  6
CONTINUOUS
 10
135.750000
 20
-103.000000
 11
138.750000
 21
-100.000000
 39
3
 62
7
  0
LINE
  8
contour
  6
CONTINUOUS
 10
71.750000
 20
-90.000000
 11
74.750000
 21
-87.000000
 39
3
 62
7
  0
LINE
  8
contour
  6
CONTINUOUS
 10
74.750000
 20
-103.000000
 11
135.750000
 21
-103.000000
 39
3
 62
7
  0
LINE
  8
contour
  6
CONTINUOUS
 10
71.750000
 20
-100.000000
 11
74.750000
 21
-103.000000
 39
3
 62
7
  0
LINE
  8
contour
  6
CONTINUOUS
 10
66.750000
 20
-85.000000
 11
71.750000
 21
-90.000000
 39
3
 62
7
  0
LINE
  8
contour
  6
CONTINUOUS
 10
66.750000
 20
-105.000000
 11
71.750000
 21
-100.000000
 39
3
 62
7
  0
LINE
  8
contour
  6
CONTINUOUS
 10
138.750000
 20
-100.000000
 11
143.750000
 21
-105.000000
 39
3
 62
7
  0
LINE
  8
contour
  6
CONTINUOUS
 10
138.750000
 20
-90.000000
 11
143.750000
 21
-85.000000
 39
3
 62
7
  0
CIRCLE
  8
helper
  6
CONTINUOUS
 10
79.750000
 20
-95.000000
 40
2.500000
 39
1
 62
7
  0
CIRCLE
  8
helper
  6
CONTINUOUS
 10
130.750000
 20
-95.000000
 40
2.500000
 39
1
 62
7
  0
LINE
  8
helper
  6
CONTINUOUS
 10
79.750000
 20
-87.000000
 11
79.750000
 21
-103.000000
 39
1
 62
7
  0
LINE
  8
helper
  6
CONTINUOUS
 10
130.750000
 20
-87.000000
 11
130.750000
 21
-103.000000
 39
1
 62
7
  0
LINE
  8
helper
  6
CONTINUOUS
 10
71.750000
 20
-95.000000
 11
138.750000
 21
-95.000000
 39
1
 62
7
  0
LINE
  8
bend
  6
DOT
 10
71.750000
 20
-90.000000
 11
71.750000
 21
-100.000000
 39
2
 62
7
  0
LINE
  8
bend
  6
DOT
 10
138.750000
 20
-90.000000
 11
138.750000
 21
-100.000000
 39
2
 62
7
  0
LINE
  8
contour
  6
CONTINUOUS
 10
74.750000
 20
-57.000000
 11
135.750000
 21
-57.000000
 39
3
 62
7
  0
LINE
  8
contour
  6
CONTINUOUS
 10
135.750000
 20
-57.000000
 11
138.750000
 21
-60.000000
 39
3
 62
7
  0
LINE
  8
contour
  6
CONTINUOUS
 10
135.750000
 20
-73.000000
 11
138.750000
 21
-70.000000
 39
3
 62
7
  0
LINE
  8
contour
  6
CONTINUOUS
 10
71.750000
 20
-60.000000
 11
74.750000
 21
-57.000000
 39
3
 62
7
  0
LINE
  8
contour
  6
CONTINUOUS
 10
74.750000
 20
-73.000000
 11
135.750000
 21
-73.000000
 39
3
 62
7
  0
LINE
  8
contour
  6
CONTINUOUS
 10
71.750000
 20
-70.000000
 11
74.750000
 21
-73.000000
 39
3
 62
7
  0
LINE
  8
contour
  6
CONTINUOUS
 10
66.750000
 20
-55.000000
 11
71.750000
 21
-60.000000
 39
3
 62
7
  0
LINE
  8
contour
  6
CONTINUOUS
 10
66.750000
 20
-75.000000
 11
71.750000
 21
-70.000000
 39
3
 62
7
  0
LINE
  8
contour
  6
CONTINUOUS
 10
138.750000
 20
-70.000000
 11
143.750000
 21
-75.000000
 39
3
 62
7
  0
LINE
  8
contour
  6
CONTINUOUS
 10
138.750000
 20
-60.000000
 11
143.750000
 21
-55.000000
 39
3
 62
7
  0
CIRCLE
  8
helper
  6
CONTINUOUS
 10
79.750000
 20
-65.000000
 40
2.500000
 39
1
 62
7
  0
CIRCLE
  8
helper
  6
CONTINUOUS
 10
130.750000
 20
-65.000000
 40
2.500000
 39
1
 62
7
  0
LINE
  8
helper
  6
CONTINUOUS
 10
79.750000
 20
-57.000000
 11
79.750000
 21
-73.000000
 39
1
 62
7
  0
LINE
  8
helper
  6
CONTINUOUS
 10
130.750000
 20
-57.000000
 11
130.750000
 21
-73.000000
 39
1
 62
7
  0
LINE
  8
helper
  6
CONTINUOUS
 10
71.750000
 20
-65.000000
 11
138.750000
 21
-65.000000
 39
1
 62
7
  0
LINE
  8
bend
  6
DOT
 10
71.750000
 20
-60.000000
 11
71.750000
 21
-70.000000
 39
2
 62
7
  0
LINE
  8
bend
  6
DOT
 10
138.750000
 20
-60.000000
 11
138.750000
 21
-70.000000
 39
2
 62
7
  0
LINE
  8
contour
  6
CONTINUOUS
 10
74.750000
 20
-27.000000
 11
135.750000
 21
-27.000000
 39
3
 62
7
  0
LINE
  8
contour
  6
CONTINUOUS
 10
135.750000
 20
-27.000000
 11
138.750000
 21
-30.000000
 39
3
 62
7
  0
LINE
  8
contour
  6
CONTINUOUS
 10
135.750000
 20
-43.000000
 11
138.750000
 21
-40.000000
 39
3
 62
7
  0
LINE
  8
contour
  6
CONTINUOUS
 10
71.750000
 20
-30.000000
 11
74.750000
 21
-27.000000
 39
3
 62
7
  0
LINE
  8
contour
  6
CONTINUOUS
 10
74.750000
 20
-43.000000
 11
135.750000
 21
-43.000000
 39
3
 62
7
  0
LINE
  8
contour
  6
CONTINUOUS
 10
71.750000
 20
-40.000000
 11
74.750000
 21
-43.000000
 39
3
 62
7
  0
LINE
  8
contour
  6
CONTINUOUS
 10
66.750000
 20
-25.000000
 11
71.750000
 21
-30.000000
 39
3
 62
7
  0
LINE
  8
contour
  6
CONTINUOUS
 10
66.750000
 20
-45.000000
 11
71.750000
 21
-40.000000
 39
3
 62
7
  0
LINE
  8
contour
  6
CONTINUOUS
 10
138.750000
 20
-40.000000
 11
143.750000
 21
-45.000000
 39
3
 62
7
  0
LINE
  8
contour
  6
CONTINUOUS
 10
138.750000
 20
-30.000000
 11
143.750000
 21
-25.000000
 39
3
 62
7
  0
CIRCLE
  8
helper
  6
CONTINUOUS
 10
79.750000
 20
-35.000000
 40
2.500000
 39
1
 62
7
  0
CIRCLE
  8
helper
  6
CONTINUOUS
 10
130.750000
 20
-35.000000
 40
2.500000
 39
1
 62
7
  0
LINE
  8
helper
  6
CONTINUOUS
 10
79.750000
 20
-27.000000
 11
79.750000
 21
-43.000000
 39
1
 62
7
  0
LINE
  8
helper
  6
CONTINUOUS
 10
130.750000
 20
-27.000000
 11
130.750000
 21
-43.000000
 39
1
 62
7
  0
LINE
  8
helper
  6
CONTINUOUS
 10
71.750000
 20
-35.000000
 11
138.750000
 21
-35.000000
 39
1
 62
7
  0
LINE
  8
bend
  6
DOT
 10
71.750000
 20
-30.000000
 11
71.750000
 21
-40.000000
 39
2
 62
7
  0
LINE
  8
bend
  6
DOT
 10
138.750000
 20
-30.000000
 11
138.750000
 21
-40.000000
 39
2
 62
7
  0
LINE
  8
contour
  6
CONTINUOUS
 10
74.750000
 20
-182.000000
 11
135.750000
 21
-182.000000
 39
3
 62
7
  0
LINE
  8
contour
  6
CONTINUOUS
 10
135.750000
 20
-182.000000
 11
138.750000
 21
-185.000000
 39
3
 62
7
  0
LINE
  8
contour
  6
CONTINUOUS
 10
135.750000
 20
-198.000000
 11
138.750000
 21
-195.000000
 39
3
 62
7
  0
LINE
  8
contour
  6
CONTINUOUS
 10
71.750000
 20
-185.000000
 11
74.750000
 21
-182.000000
 39
3
 62
7
  0
LINE
  8
contour
  6
CONTINUOUS
 10
74.750000
 20
-198.000000
 11
135.750000
 21
-198.000000
 39
3
 62
7
  0
LINE
  8
contour
  6
CONTINUOUS
 10
71.750000
 20
-195.000000
 11
74.750000
 21
-198.000000
 39
3
 62
7
  0
LINE
  8
contour
  6
CONTINUOUS
 10
66.750000
 20
-180.000000
 11
71.750000
 21
-185.000000
 39
3
 62
7
  0
LINE
  8
contour
  6
CONTINUOUS
 10
66.750000
 20
-200.000000
 11
71.750000
 21
-195.000000
 39
3
 62
7
  0
LINE
  8
contour
  6
CONTINUOUS
 10
138.750000
 20
-195.000000
 11
143.750000
 21
-200.000000
 39
3
 62
7
  0
LINE
  8
contour
  6
CONTINUOUS
 10
138.750000
 20
-185.000000
 11
143.750000
 21
-180.000000
 39
3
 62
7
  0
CIRCLE
  8
helper
  6
CONTINUOUS
 10
79.750000
 20
-190.000000
 40
2.500000
 39
1
 62
7
  0
CIRCLE
  8
helper
  6
CONTINUOUS
 10
130.750000
 20
-190.000000
 40
2.500000
 39
1
 62
7
  0
LINE
  8
helper
  6
CONTINUOUS
 10
79.750000
 20
-182.000000
 11
79.750000
 21
-198.000000
 39
1
 62
7
  0
LINE
  8
helper
  6
CONTINUOUS
 10
130.750000
 20
-182.000000
 11
130.750000
 21
-198.000000
 39
1
 62
7
  0
LINE
  8
helper
  6
CONTINUOUS
 10
71.750000
 20
-190.000000
 11
138.750000
 21
-190.000000
 39
1
 62
7
  0
LINE
  8
bend
  6
DOT
 10
71.750000
 20
-185.000000
 11
71.750000
 21
-195.000000
 39
2
 62
7
  0
LINE
  8
bend
  6
DOT
 10
138.750000
 20
-185.000000
 11
138.750000
 21
-195.000000
 39
2
 62
7
  0
LINE
  8
contour
  6
CONTINUOUS
 10
74.750000
 20
-212.000000
 11
135.750000
 21
-212.000000
 39
3
 62
7
  0
LINE
  8
contour
  6
CONTINUOUS
 10
135.750000
 20
-212.000000
 11
138.750000
 21
-215.000000
 39
3
 62
7
  0
LINE
  8
contour
  6
CONTINUOUS
 10
135.750000
 20
-228.000000
 11
138.750000
 21
-225.000000
 39
3
 62
7
  0
LINE
  8
contour
  6
CONTINUOUS
 10
71.750000
 20
-215.000000
 11
74.750000
 21
-212.000000
 39
3
 62
7
  0
LINE
  8
contour
  6
CONTINUOUS
 10
74.750000
 20
-228.000000
 11
135.750000
 21
-228.000000
 39
3
 62
7
  0
LINE
  8
contour
  6
CONTINUOUS
 10
71.750000
 20
-225.000000
 11
74.750000
 21
-228.000000
 39
3
 62
7
  0
LINE
  8
contour
  6
CONTINUOUS
 10
66.750000
 20
-210.000000
 11
71.750000
 21
-215.000000
 39
3
 62
7
  0
LINE
  8
contour
  6
CONTINUOUS
 10
66.750000
 20
-230.000000
 11
71.750000
 21
-225.000000
 39
3
 62
7
  0
LINE
  8
contour
  6
CONTINUOUS
 10
138.750000
 20
-225.000000
 11
143.750000
 21
-230.000000
 39
3
 62
7
  0
LINE
  8
contour
  6
CONTINUOUS
 10
138.750000
 20
-215.000000
 11
143.750000
 21
-210.000000
 39
3
 62
7
  0
CIRCLE
  8
helper
  6
CONTINUOUS
 10
79.750000
 20
-220.000000
 40
2.500000
 39
1
 62
7
  0
CIRCLE
  8
helper
  6
CONTINUOUS
 10
130.750000
 20
-220.000000
 40
2.500000
 39
1
 62
7
  0
LINE
  8
helper
  6
CONTINUOUS
 10
79.750000
 20
-212.000000
 11
79.750000
 21
-228.000000
 39
1
 62
7
  0
LINE
  8
helper
  6
CONTINUOUS
 10
130.750000
 20
-212.000000
 11
130.750000
 21
-228.000000
 39
1
 62
7
  0
LINE
  8
helper
  6
CONTINUOUS
 10
71.750000
 20
-220.000000
 11
138.750000
 21
-220.000000
 39
1
 62
7
  0
LINE
  8
bend
  6
DOT
 10
71.750000
 20
-215.000000
 11
71.750000
 21
-225.000000
 39
2
 62
7
  0
LINE
  8
bend
  6
DOT
 10
138.750000
 20
-215.000000
 11
138.750000
 21
-225.000000
 39
2
 62
7
  0
LINE
  8
contour
  6
CONTINUOUS
 10
74.750000
 20
-242.000000
 11
135.750000
 21
-242.000000
 39
3
 62
7
  0
LINE
  8
contour
  6
CONTINUOUS
 10
135.750000
 20
-242.000000
 11
138.750000
 21
-245.000000
 39
3
 62
7
  0
LINE
  8
contour
  6
CONTINUOUS
 10
135.750000
 20
-258.000000
 11
138.750000
 21
-255.000000
 39
3
 62
7
  0
LINE
  8
contour
  6
CONTINUOUS
 10
71.750000
 20
-245.000000
 11
74.750000
 21
-242.000000
 39
3
 62
7
  0
LINE
  8
contour
  6
CONTINUOUS
 10
74.750000
 20
-258.000000
 11
135.750000
 21
-258.000000
 39
3
 62
7
  0
LINE
  8
contour
  6
CONTINUOUS
 10
71.750000
 20
-255.000000
 11
74.750000
 21
-258.000000
 39
3
 62
7
  0
LINE
  8
contour
  6
CONTINUOUS
 10
66.750000
 20
-240.000000
 11
71.750000
 21
-245.000000
 39
3
 62
7
  0
LINE
  8
contour
  6
CONTINUOUS
 10
66.750000
 20
-260.000000
 11
71.750000
 21
-255.000000
 39
3
 62
7
  0
LINE
  8
contour
  6
CONTINUOUS
 10
138.750000
 20
-255.000000
 11
143.750000
 21
-260.000000
 39
3
 62
7
  0
LINE
  8
contour
  6
CONTINUOUS
 10
138.750000
 20
-245.000000
 11
143.750000
 21
-240.000000
 39
3
 62
7
  0
CIRCLE
  8
helper
  6
CONTINUOUS
 10
79.750000
 20
-250.000000
 40
2.500000
 39
1
 62
7
  0
CIRCLE
  8
helper
  6
CONTINUOUS
 10
130.750000
 20
-250.000000
 40
2.500000
 39
1
 62
7
  0
LINE
  8
helper
  6
CONTINUOUS
 10
79.750000
 20
-242.000000
 11
79.750000
 21
-258.000000
 39
1
 62
7
  0
LINE
  8
helper
  6
CONTINUOUS
 10
130.750000
 20
-242.000000
 11
130.750000
 21
-258.000000
 39
1
 62
7
  0
LINE
  8
helper
  6
CONTINUOUS
 10
71.750000
 20
-250.000000
 11
138.750000
 21
-250.000000
 39
1
 62
7
  0
LINE
  8
bend
  6
DOT
 10
71.750000
 20
-245.000000
 11
71.750000
 21
-255.000000
 39
2
 62
7
  0
LINE
  8
bend
  6
DOT
 10
138.750000
 20
-245.000000
 11
138.750000
 21
-255.000000
 39
2
 62
7
  0
LINE
  8
contour
  6
CONTINUOUS
 10
90.022575
 20
219.734011
 11
90.022575
 21
76.415202
 39
3
 62
7
  0
LINE
  8
contour
  6
CONTINUOUS
 10
150.750000
 20
-115.000000
 11
155.750000
 21
-110.000000
 39
3
 62
7
  0
LINE
  8
contour
  6
CONTINUOUS
 10
143.750000
 20
-115.000000
 11
150.750000
 21
-115.000000
 39
3
 62
7
  0
LINE
  8
contour
  6
CONTINUOUS
 10
143.750000
 20
-135.000000
 11
150.750000
 21
-135.000000
 39
3
 62
7
  0
LINE
  8
contour
  6
CONTINUOUS
 10
150.750000
 20
-135.000000
 11
155.750000
 21
-140.000000
 39
3
 62
7
  0
LINE
  8
bend
  6
DOT
 10
138.750000
 20
-130.000000
 11
155.750000
 21
-130.000000
 39
2
 62
7
  0
LINE
  8
contour
  6
CONTINUOUS
 10
155.750000
 20
-110.000000
 11
155.750000
 21
-120.000000
 39
3
 62
7
  0
LINE
  8
contour
  6
CONTINUOUS
 10
155.750000
 20
-130.000000
 11
155.750000
 21
-140.000000
 39
3
 62
7
  0
LINE
  8
bend
  6
DOT
 10
138.750000
 20
-120.000000
 11
155.750000
 21
-120.000000
 39
2
 62
7
  0
LINE
  8
contour
  6
CONTINUOUS
 10
158.750000
 20
-125.000000
 11
155.750000
 21
-130.000000
 39
3
 62
7
  0
LINE
  8
contour
  6
CONTINUOUS
 10
158.750000
 20
-125.000000
 11
155.750000
 21
-120.000000
 39
3
 62
7
  0
LINE
  8
contour
  6
CONTINUOUS
 10
151.750000
 20
-150.000000
 11
156.750000
 21
-145.000000
 39
3
 62
7
  0
LINE
  8
contour
  6
CONTINUOUS
 10
143.750000
 20
-150.000000
 11
151.750000
 21
-150.000000
 39
3
 62
7
  0
LINE
  8
contour
  6
CONTINUOUS
 10
143.750000
 20
-170.000000
 11
151.750000
 21
-170.000000
 39
3
 62
7
  0
LINE
  8
contour
  6
CONTINUOUS
 10
151.750000
 20
-170.000000
 11
156.750000
 21
-175.000000
 39
3
 62
7
  0
LINE
  8
bend
  6
DOT
 10
138.750000
 20
-165.000000
 11
156.750000
 21
-165.000000
 39
2
 62
7
  0
LINE
  8
contour
  6
CONTINUOUS
 10
156.750000
 20
-145.000000
 11
156.750000
 21
-155.000000
 39
3
 62
7
  0
LINE
  8
contour
  6
CONTINUOUS
 10
156.750000
 20
-165.000000
 11
156.750000
 21
-175.000000
 39
3
 62
7
  0
LINE
  8
bend
  6
DOT
 10
138.750000
 20
-155.000000
 11
156.750000
 21
-155.000000
 39
2
 62
7
  0
LINE
  8
contour
  6
CONTINUOUS
 10
159.750000
 20
-160.000000
 11
156.750000
 21
-165.000000
 39
3
 62
7
  0
LINE
  8
contour
  6
CONTINUOUS
 10
159.750000
 20
-160.000000
 11
156.750000
 21
-155.000000
 39
3
 62
7
  0
LINE
  8
contour
  6
CONTINUOUS
 10
150.750000
 20
-85.000000
 11
155.750000
 21
-80.000000
 39
3
 62
7
  0
LINE
  8
contour
  6
CONTINUOUS
 10
143.750000
 20
-85.000000
 11
150.750000
 21
-85.000000
 39
3
 62
7
  0
LINE
  8
contour
  6
CONTINUOUS
 10
143.750000
 20
-105.000000
 11
150.750000
 21
-105.000000
 39
3
 62
7
  0
LINE
  8
contour
  6
CONTINUOUS
 10
150.750000
 20
-105.000000
 11
155.750000
 21
-110.000000
 39
3
 62
7
  0
LINE
  8
bend
  6
DOT
 10
138.750000
 20
-100.000000
 11
155.750000
 21
-100.000000
 39
2
 62
7
  0
LINE
  8
contour
  6
CONTINUOUS
 10
155.750000
 20
-80.000000
 11
155.750000
 21
-90.000000
 39
3
 62
7
  0
LINE
  8
contour
  6
CONTINUOUS
 10
155.750000
 20
-100.000000
 11
155.750000
 21
-110.000000
 39
3
 62
7
  0
LINE
  8
bend
  6
DOT
 10
138.750000
 20
-90.000000
 11
155.750000
 21
-90.000000
 39
2
 62
7
  0
LINE
  8
contour
  6
CONTINUOUS
 10
158.750000
 20
-95.000000
 11
155.750000
 21
-100.000000
 39
3
 62
7
  0
LINE
  8
contour
  6
CONTINUOUS
 10
158.750000
 20
-95.000000
 11
155.750000
 21
-90.000000
 39
3
 62
7
  0
LINE
  8
contour
  6
CONTINUOUS
 10
150.750000
 20
-55.000000
 11
155.750000
 21
-50.000000
 39
3
 62
7
  0
LINE
  8
contour
  6
CONTINUOUS
 10
143.750000
 20
-55.000000
 11
150.750000
 21
-55.000000
 39
3
 62
7
  0
LINE
  8
contour
  6
CONTINUOUS
 10
143.750000
 20
-75.000000
 11
150.750000
 21
-75.000000
 39
3
 62
7
  0
LINE
  8
contour
  6
CONTINUOUS
 10
150.750000
 20
-75.000000
 11
155.750000
 21
-80.000000
 39
3
 62
7
  0
LINE
  8
bend
  6
DOT
 10
138.750000
 20
-70.000000
 11
155.750000
 21
-70.000000
 39
2
 62
7
  0
LINE
  8
contour
  6
CONTINUOUS
 10
155.750000
 20
-50.000000
 11
155.750000
 21
-60.000000
 39
3
 62
7
  0
LINE
  8
contour
  6
CONTINUOUS
 10
155.750000
 20
-70.000000
 11
155.750000
 21
-80.000000
 39
3
 62
7
  0
LINE
  8
bend
  6
DOT
 10
138.750000
 20
-60.000000
 11
155.750000
 21
-60.000000
 39
2
 62
7
  0
LINE
  8
contour
  6
CONTINUOUS
 10
158.750000
 20
-65.000000
 11
155.750000
 21
-70.000000
 39
3
 62
7
  0
LINE
  8
contour
  6
CONTINUOUS
 10
158.750000
 20
-65.000000
 11
155.750000
 21
-60.000000
 39
3
 62
7
  0
LINE
  8
contour
  6
CONTINUOUS
 10
150.750000
 20
-25.000000
 11
155.750000
 21
-20.000000
 39
3
 62
7
  0
LINE
  8
contour
  6
CONTINUOUS
 10
143.750000
 20
-25.000000
 11
150.750000
 21
-25.000000
 39
3
 62
7
  0
LINE
  8
contour
  6
CONTINUOUS
 10
143.750000
 20
-45.000000
 11
150.750000
 21
-45.000000
 39
3
 62
7
  0
LINE
  8
contour
  6
CONTINUOUS
 10
150.750000
 20
-45.000000
 11
155.750000
 21
-50.000000
 39
3
 62
7
  0
LINE
  8
bend
  6
DOT
 10
138.750000
 20
-40.000000
 11
155.750000
 21
-40.000000
 39
2
 62
7
  0
LINE
  8
contour
  6
CONTINUOUS
 10
155.750000
 20
-20.000000
 11
155.750000
 21
-30.000000
 39
3
 62
7
  0
LINE
  8
contour
  6
CONTINUOUS
 10
155.750000
 20
-40.000000
 11
155.750000
 21
-50.000000
 39
3
 62
7
  0
LINE
  8
bend
  6
DOT
 10
138.750000
 20
-30.000000
 11
155.750000
 21
-30.000000
 39
2
 62
7
  0
LINE
  8
contour
  6
CONTINUOUS
 10
158.750000
 20
-35.000000
 11
155.750000
 21
-40.000000
 39
3
 62
7
  0
LINE
  8
contour
  6
CONTINUOUS
 10
158.750000
 20
-35.000000
 11
155.750000
 21
-30.000000
 39
3
 62
7
  0
LINE
  8
contour
  6
CONTINUOUS
 10
151.750000
 20
-180.000000
 11
156.750000
 21
-175.000000
 39
3
 62
7
  0
LINE
  8
contour
  6
CONTINUOUS
 10
143.750000
 20
-180.000000
 11
151.750000
 21
-180.000000
 39
3
 62
7
  0
LINE
  8
contour
  6
CONTINUOUS
 10
143.750000
 20
-200.000000
 11
151.750000
 21
-200.000000
 39
3
 62
7
  0
LINE
  8
contour
  6
CONTINUOUS
 10
151.750000
 20
-200.000000
 11
156.750000
 21
-205.000000
 39
3
 62
7
  0
LINE
  8
bend
  6
DOT
 10
138.750000
 20
-195.000000
 11
156.750000
 21
-195.000000
 39
2
 62
7
  0
LINE
  8
contour
  6
CONTINUOUS
 10
156.750000
 20
-175.000000
 11
156.750000
 21
-185.000000
 39
3
 62
7
  0
LINE
  8
contour
  6
CONTINUOUS
 10
156.750000
 20
-195.000000
 11
156.750000
 21
-205.000000
 39
3
 62
7
  0
LINE
  8
bend
  6
DOT
 10
138.750000
 20
-185.000000
 11
156.750000
 21
-185.000000
 39
2
 62
7
  0
LINE
  8
contour
  6
CONTINUOUS
 10
159.750000
 20
-190.000000
 11
156.750000
 21
-195.000000
 39
3
 62
7
  0
LINE
  8
contour
  6
CONTINUOUS
 10
159.750000
 20
-190.000000
 11
156.750000
 21
-185.000000
 39
3
 62
7
  0
LINE
  8
contour
  6
CONTINUOUS
 10
151.750000
 20
-210.000000
 11
156.750000
 21
-205.000000
 39
3
 62
7
  0
LINE
  8
contour
  6
CONTINUOUS
 10
143.750000
 20
-210.000000
 11
151.750000
 21
-210.000000
 39
3
 62
7
  0
LINE
  8
contour
  6
CONTINUOUS
 10
143.750000
 20
-230.000000
 11
151.750000
 21
-230.000000
 39
3
 62
7
  0
LINE
  8
contour
  6
CONTINUOUS
 10
151.750000
 20
-230.000000
 11
156.750000
 21
-235.000000
 39
3
 62
7
  0
LINE
  8
bend
  6
DOT
 10
138.750000
 20
-225.000000
 11
156.750000
 21
-225.000000
 39
2
 62
7
  0
LINE
  8
contour
  6
CONTINUOUS
 10
156.750000
 20
-205.000000
 11
156.750000
 21
-215.000000
 39
3
 62
7
  0
LINE
  8
contour
  6
CONTINUOUS
 10
156.750000
 20
-225.000000
 11
156.750000
 21
-235.000000
 39
3
 62
7
  0
LINE
  8
bend
  6
DOT
 10
138.750000
 20
-215.000000
 11
156.750000
 21
-215.000000
 39
2
 62
7
  0
LINE
  8
contour
  6
CONTINUOUS
 10
159.750000
 20
-220.000000
 11
156.750000
 21
-225.000000
 39
3
 62
7
  0
LINE
  8
contour
  6
CONTINUOUS
 10
159.750000
 20
-220.000000
 11
156.750000
 21
-215.000000
 39
3
 62
7
  0
LINE
  8
contour
  6
CONTINUOUS
 10
151.750000
 20
-240.000000
 11
156.750000
 21
-235.000000
 39
3
 62
7
  0
LINE
  8
contour
  6
CONTINUOUS
 10
143.750000
 20
-240.000000
 11
151.750000
 21
-240.000000
 39
3
 62
7
  0
LINE
  8
contour
  6
CONTINUOUS
 10
143.750000
 20
-260.000000
 11
151.750000
 21
-260.000000
 39
3
 62
7
  0
LINE
  8
contour
  6
CONTINUOUS
 10
151.750000
 20
-260.000000
 11
156.750000
 21
-265.000000
 39
3
 62
7
  0
LINE
  8
bend
  6
DOT
 10
138.750000
 20
-255.000000
 11
156.750000
 21
-255.000000
 39
2
 62
7
  0
LINE
  8
contour
  6
CONTINUOUS
 10
156.750000
 20
-235.000000
 11
156.750000
 21
-245.000000
 39
3
 62
7
  0
LINE
  8
contour
  6
CONTINUOUS
 10
156.750000
 20
-255.000000
 11
156.750000
 21
-265.000000
 39
3
 62
7
  0
LINE
  8
bend
  6
DOT
 10
138.750000
 20
-245.000000
 11
156.750000
 21
-245.000000
 39
2
 62
7
  0
LINE
  8
contour
  6
CONTINUOUS
 10
159.750000
 20
-250.000000
 11
156.750000
 21
-255.000000
 39
3
 62
7
  0
LINE
  8
contour
  6
CONTINUOUS
 10
159.750000
 20
-250.000000
 11
156.750000
 21
-245.000000
 39
3
 62
7
  0
LINE
  8
contour
  6
CONTINUOUS
 10
54.750000
 20
-140.000000
 11
59.750000
 21
-135.000000
 39
3
 62
7
  0
LINE
  8
contour
  6
CONTINUOUS
 10
59.750000
 20
-135.000000
 11
66.750000
 21
-135.000000
 39
3
 62
7
  0
LINE
  8
contour
  6
CONTINUOUS
 10
54.750000
 20
-110.000000
 11
59.750000
 21
-115.000000
 39
3
 62
7
  0
LINE
  8
contour
  6
CONTINUOUS
 10
59.750000
 20
-115.000000
 11
66.750000
 21
-115.000000
 39
3
 62
7
  0
LINE
  8
bend
  6
DOT
 10
54.750000
 20
-120.000000
 11
71.750000
 21
-120.000000
 39
2
 62
7
  0
LINE
  8
bend
  6
DOT
 10
54.750000
 20
-130.000000
 11
71.750000
 21
-130.000000
 39
2
 62
7
  0
TEXT
  8
contour
  6
CONTINUOUS
 10
58.700048
 20
-129.109171
 40
3.000000
 50
0.000000
 72
0
  7
Normal#0.300000#1.800000
  1
Bend
 39
3
 62
7
  0
LINE
  8
contour
  6
CONTINUOUS
 10
54.750000
 20
-110.000000
 11
54.750000
 21
-120.000000
 39
3
 62
7
  0
LINE
  8
contour
  6
CONTINUOUS
 10
54.750000
 20
-130.000000
 11
54.750000
 21
-140.000000
 39
3
 62
7
  0
LINE
  8
contour
  6
CONTINUOUS
 10
51.750000
 20
-125.000000
 11
54.750000
 21
-130.000000
 39
3
 62
7
  0
LINE
  8
contour
  6
CONTINUOUS
 10
51.750000
 20
-125.000000
 11
54.750000
 21
-120.000000
 39
3
 62
7
  0
LINE
  8
contour
  6
CONTINUOUS
 10
53.750000
 20
-175.000000
 11
58.750000
 21
-170.000000
 39
3
 62
7
  0
LINE
  8
contour
  6
CONTINUOUS
 10
58.750000
 20
-170.000000
 11
66.750000
 21
-170.000000
 39
3
 62
7
  0
LINE
  8
contour
  6
CONTINUOUS
 10
53.750000
 20
-145.000000
 11
58.750000
 21
-150.000000
 39
3
 62
7
  0
LINE
  8
contour
  6
CONTINUOUS
 10
58.750000
 20
-150.000000
 11
66.750000
 21
-150.000000
 39
3
 62
7
  0
LINE
  8
bend
  6
DOT
 10
53.750000
 20
-155.000000
 11
71.750000
 21
-155.000000
 39
2
 62
7
  0
LINE
  8
bend
  6
DOT
 10
53.750000
 20
-165.000000
 11
71.750000
 21
-165.000000
 39
2
 62
7
  0
TEXT
  8
contour
  6
CONTINUOUS
 10
58.700048
 20
-164.109171
 40
3.000000
 50
0.000000
 72
0
  7
Normal#0.300000#1.800000
  1
Bend
 39
3
 62
7
  0
LINE
  8
contour
  6
CONTINUOUS
 10
53.750000
 20
-145.000000
 11
53.750000
 21
-155.000000
 39
3
 62
7
  0
LINE
  8
contour
  6
CONTINUOUS
 10
53.750000
 20
-165.000000
 11
53.750000
 21
-175.000000
 39
3
 62
7
  0
LINE
  8
contour
  6
CONTINUOUS
 10
50.750000
 20
-160.000000
 11
53.750000
 21
-165.000000
 39
3
 62
7
  0
LINE
  8
contour
  6
CONTINUOUS
 10
50.750000
 20
-160.000000
 11
53.750000
 21
-155.000000
 39
3
 62
7
  0
LINE
  8
contour
  6
CONTINUOUS
 10
54.750000
 20
-110.000000
 11
59.750000
 21
-105.000000
 39
3
 62
7
  0
LINE
  8
contour
  6
CONTINUOUS
 10
59.750000
 20
-105.000000
 11
66.750000
 21
-105.000000
 39
3
 62
7
  0
LINE
  8
contour
  6
CONTINUOUS
 10
54.750000
 20
-80.000000
 11
59.750000
 21
-85.000000
 39
3
 62
7
  0
LINE
  8
contour
  6
CONTINUOUS
 10
59.750000
 20
-85.000000
 11
66.750000
 21
-85.000000
 39
3
 62
7
  0
LINE
  8
bend
  6
DOT
 10
54.750000
 20
-90.000000
 11
71.750000
 21
-90.000000
 39
2
 62
7
  0
LINE
  8
bend
  6
DOT
 10
54.750000
 20
-100.000000
 11
71.750000
 21
-100.000000
 39
2
 62
7
  0
TEXT
  8
contour
  6
CONTINUOUS
 10
58.700048
 20
-99.109171
 40
3.000000
 50
0.000000
 72
0
  7
Normal#0.300000#1.800000
  1
Bend
 39
3
 62
7
  0
LINE
  8
contour
  6
CONTINUOUS
 10
54.750000
 20
-80.000000
 11
54.750000
 21
-90.000000
 39
3
 62
7
  0
LINE
  8
contour
  6
CONTINUOUS
 10
54.750000
 20
-100.000000
 11
54.750000
 21
-110.000000
 39
3
 62
7
  0
LINE
  8
contour
  6
CONTINUOUS
 10
51.750000
 20
-95.000000
 11
54.750000
 21
-100.000000
 39
3
 62
7
  0
LINE
  8
contour
  6
CONTINUOUS
 10
51.750000
 20
-95.000000
 11
54.750000
 21
-90.000000
 39
3
 62
7
  0
LINE
  8
contour
  6
CONTINUOUS
 10
54.750000
 20
-80.000000
 11
59.750000
 21
-75.000000
 39
3
 62
7
  0
LINE
  8
contour
  6
CONTINUOUS
 10
59.750000
 20
-75.000000
 11
66.750000
 21
-75.000000
 39
3
 62
7
  0
LINE
  8
contour
  6
CONTINUOUS
 10
54.750000
 20
-50.000000
 11
59.750000
 21
-55.000000
 39
3
 62
7
  0
LINE
  8
contour
  6
CONTINUOUS
 10
59.750000
 20
-55.000000
 11
66.750000
 21
-55.000000
 39
3
 62
7
  0
LINE
  8
bend
  6
DOT
 10
54.750000
 20
-60.000000
 11
71.750000
 21
-60.000000
 39
2
 62
7
  0
LINE
  8
bend
  6
DOT
 10
54.750000
 20
-70.000000
 11
71.750000
 21
-70.000000
 39
2
 62
7
  0
TEXT
  8
contour
  6
CONTINUOUS
 10
58.700048
 20
-69.109171
 40
3.000000
 50
0.000000
 72
0
  7
Normal#0.300000#1.800000
  1
Bend
 39
3
 62
7
  0
LINE
  8
contour
  6
CONTINUOUS
 10
54.750000
 20
-50.000000
 11
54.750000
 21
-60.000000
 39
3
 62
7
  0
LINE
  8
contour
  6
CONTINUOUS
 10
54.750000
 20
-70.000000
 11
54.750000
 21
-80.000000
 39
3
 62
7
  0
LINE
  8
contour
  6
CONTINUOUS
 10
51.750000
 20
-65.000000
 11
54.750000
 21
-70.000000
 39
3
 62
7
  0
LINE
  8
contour
  6
CONTINUOUS
 10
51.750000
 20
-65.000000
 11
54.750000
 21
-60.000000
 39
3
 62
7
  0
LINE
  8
contour
  6
CONTINUOUS
 10
54.750000
 20
-50.000000
 11
59.750000
 21
-45.000000
 39
3
 62
7
  0
LINE
  8
contour
  6
CONTINUOUS
 10
59.750000
 20
-45.000000
 11
66.750000
 21
-45.000000
 39
3
 62
7
  0
LINE
  8
contour
  6
CONTINUOUS
 10
54.750000
 20
-20.000000
 11
59.750000
 21
-25.000000
 39
3
 62
7
  0
LINE
  8
contour
  6
CONTINUOUS
 10
59.750000
 20
-25.000000
 11
66.750000
 21
-25.000000
 39
3
 62
7
  0
LINE
  8
bend
  6
DOT
 10
54.750000
 20
-30.000000
 11
71.750000
 21
-30.000000
 39
2
 62
7
  0
LINE
  8
bend
  6
DOT
 10
54.750000
 20
-40.000000
 11
71.750000
 21
-40.000000
 39
2
 62
7
  0
TEXT
  8
contour
  6
CONTINUOUS
 10
58.700048
 20
-39.109171
 40
3.000000
 50
0.000000
 72
0
  7
Normal#0.300000#1.800000
  1
Bend
 39
3
 62
7
  0
LINE
  8
contour
  6
CONTINUOUS
 10
54.750000
 20
-20.000000
 11
54.750000
 21
-30.000000
 39
3
 62
7
  0
LINE
  8
contour
  6
CONTINUOUS
 10
54.750000
 20
-40.000000
 11
54.750000
 21
-50.000000
 39
3
 62
7
  0
LINE
  8
contour
  6
CONTINUOUS
 10
51.750000
 20
-35.000000
 11
54.750000
 21
-40.000000
 39
3
 62
7
  0
LINE
  8
contour
  6
CONTINUOUS
 10
51.750000
 20
-35.000000
 11
54.750000
 21
-30.000000
 39
3
 62
7
  0
LINE
  8
contour
  6
CONTINUOUS
 10
53.750000
 20
-205.000000
 11
58.750000
 21
-200.000000
 39
3
 62
7
  0
LINE
  8
contour
  6
CONTINUOUS
 10
58.750000
 20
-200.000000
 11
66.750000
 21
-200.000000
 39
3
 62
7
  0
LINE
  8
contour
  6
CONTINUOUS
 10
53.750000
 20
-175.000000
 11
58.750000
 21
-180.000000
 39
3
 62
7
  0
LINE
  8
contour
  6
CONTINUOUS
 10
58.750000
 20
-180.000000
 11
66.750000
 21
-180.000000
 39
3
 62
7
  0
LINE
  8
bend
  6
DOT
 10
53.750000
 20
-185.000000
 11
71.750000
 21
-185.000000
 39
2
 62
7
  0
LINE
  8
bend
  6
DOT
 10
53.750000
 20
-195.000000
 11
71.750000
 21
-195.000000
 39
2
 62
7
  0
TEXT
  8
contour
  6
CONTINUOUS
 10
58.700048
 20
-194.109171
 40
3.000000
 50
0.000000
 72
0
  7
Normal#0.300000#1.800000
  1
Bend
 39
3
 62
7
  0
LINE
  8
contour
  6
CONTINUOUS
 10
53.750000
 20
-175.000000
 11
53.750000
 21
-185.000000
 39
3
 62
7
  0
LINE
  8
contour
  6
CONTINUOUS
 10
53.750000
 20
-195.000000
 11
53.750000
 21
-205.000000
 39
3
 62
7
  0
LINE
  8
contour
  6
CONTINUOUS
 10
50.750000
 20
-190.000000
 11
53.750000
 21
-195.000000
 39
3
 62
7
  0
LINE
  8
contour
  6
CONTINUOUS
 10
50.750000
 20
-190.000000
 11
53.750000
 21
-185.000000
 39
3
 62
7
  0
LINE
  8
contour
  6
CONTINUOUS
 10
53.750000
 20
-235.000000
 11
58.750000
 21
-230.000000
 39
3
 62
7
  0
LINE
  8
contour
  6
CONTINUOUS
 10
58.750000
 20
-230.000000
 11
66.750000
 21
-230.000000
 39
3
 62
7
  0
LINE
  8
contour
  6
CONTINUOUS
 10
53.750000
 20
-205.000000
 11
58.750000
 21
-210.000000
 39
3
 62
7
  0
LINE
  8
contour
  6
CONTINUOUS
 10
58.750000
 20
-210.000000
 11
66.750000
 21
-210.000000
 39
3
 62
7
  0
LINE
  8
bend
  6
DOT
 10
53.750000
 20
-215.000000
 11
71.750000
 21
-215.000000
 39
2
 62
7
  0
LINE
  8
bend
  6
DOT
 10
53.750000
 20
-225.000000
 11
71.750000
 21
-225.000000
 39
2
 62
7
  0
TEXT
  8
contour
  6
CONTINUOUS
 10
58.700048
 20
-224.109171
 40
3.000000
 50
0.000000
 72
0
  7
Normal#0.300000#1.800000
  1
Bend
 39
3
 62
7
  0
LINE
  8
contour
  6
CONTINUOUS
 10
53.750000
 20
-205.000000
 11
53.750000
 21
-215.000000
 39
3
 62
7
  0
LINE
  8
contour
  6
CONTINUOUS
 10
53.750000
 20
-225.000000
 11
53.750000
 21
-235.000000
 39
3
 62
7
  0
LINE
  8
contour
  6
CONTINUOUS
 10
50.750000
 20
-220.000000
 11
53.750000
 21
-225.000000
 39
3
 62
7
  0
LINE
  8
contour
  6
CONTINUOUS
 10
50.750000
 20
-220.000000
 11
53.750000
 21
-215.000000
 39
3
 62
7
  0
LINE
  8
contour
  6
CONTINUOUS
 10
53.750000
 20
-265.000000
 11
58.750000
 21
-260.000000
 39
3
 62
7
  0
LINE
  8
contour
  6
CONTINUOUS
 10
58.750000
 20
-260.000000
 11
66.750000
 21
-260.000000
 39
3
 62
7
  0
LINE
  8
contour
  6
CONTINUOUS
 10
53.750000
 20
-235.000000
 11
58.750000
 21
-240.000000
 39
3
 62
7
  0
LINE
  8
contour
  6
CONTINUOUS
 10
58.750000
 20
-240.000000
 11
66.750000
 21
-240.000000
 39
3
 62
7
  0
LINE
  8
bend
  6
DOT
 10
53.750000
 20
-245.000000
 11
71.750000
 21
-245.000000
 39
2
 62
7
  0
LINE
  8
bend
  6
DOT
 10
53.750000
 20
-255.000000
 11
71.750000
 21
-255.000000
 39
2
 62
7
  0
TEXT
  8
contour
  6
CONTINUOUS
 10
58.700048
 20
-254.109171
 40
3.000000
 50
0.000000
 72
0
  7
Normal#0.300000#1.800000
  1
Bend
 39
3
 62
7
  0
LINE
  8
contour
  6
CONTINUOUS
 10
53.750000
 20
-235.000000
 11
53.750000
 21
-245.000000
 39
3
 62
7
  0
LINE
  8
contour
  6
CONTINUOUS
 10
53.750000
 20
-255.000000
 11
53.750000
 21
-265.000000
 39
3
 62
7
  0
LINE
  8
contour
  6
CONTINUOUS
 10
50.750000
 20
-250.000000
 11
53.750000
 21
-255.000000
 39
3
 62
7
  0
LINE
  8
contour
  6
CONTINUOUS
 10
50.750000
 20
-250.000000
 11
53.750000
 21
-245.000000
 39
3
 62
7
  0
TEXT
  8
contour
  6
CONTINUOUS
 10
102.304204
 20
-34.392429
 40
5.000000
 50
0.000000
 72
0
  7
Normal#0.500000#3.000000
  1
17
 39
3
 62
7
  0
TEXT
  8
contour
  6
CONTINUOUS
 10
102.304204
 20
-64.392429
 40
5.000000
 50
0.000000
 72
0
  7
Normal#0.500000#3.000000
  1
17
 39
3
 62
7
  0
TEXT
  8
contour
  6
CONTINUOUS
 10
102.304204
 20
-94.392429
 40
5.000000
 50
0.000000
 72
0
  7
Normal#0.500000#3.000000
  1
17
 39
3
 62
7
  0
TEXT
  8
contour
  6
CONTINUOUS
 10
102.304204
 20
-124.392429
 40
5.000000
 50
0.000000
 72
0
  7
Normal#0.500000#3.000000
  1
17
 39
3
 62
7
  0
TEXT
  8
contour
  6
CONTINUOUS
 10
102.304204
 20
-159.392429
 40
5.000000
 50
0.000000
 72
0
  7
Normal#0.500000#3.000000
  1
18
 39
3
 62
7
  0
TEXT
  8
contour
  6
CONTINUOUS
 10
102.304204
 20
-189.392429
 40
5.000000
 50
0.000000
 72
0
  7
Normal#0.500000#3.000000
  1
18
 39
3
 62
7
  0
TEXT
  8
contour
  6
CONTINUOUS
 10
102.304204
 20
-219.392429
 40
5.000000
 50
0.000000
 72
0
  7
Normal#0.500000#3.000000
  1
18
 39
3
 62
7
  0
TEXT
  8
contour
  6
CONTINUOUS
 10
102.304204
 20
-249.392429
 40
5.000000
 50
0.000000
 72
0
  7
Normal#0.500000#3.000000
  1
18
 39
3
 62
7
  0
LINE
  8
contour
  6
CONTINUOUS
 10
234.750000
 20
153.000000
 11
295.750000
 21
153.000000
 39
3
 62
7
  0
LINE
  8
contour
  6
CONTINUOUS
 10
295.750000
 20
153.000000
 11
298.750000
 21
150.000000
 39
3
 62
7
  0
LINE
  8
contour
  6
CONTINUOUS
 10
295.750000
 20
137.000000
 11
298.750000
 21
140.000000
 39
3
 62
7
  0
LINE
  8
contour
  6
CONTINUOUS
 10
231.750000
 20
150.000000
 11
234.750000
 21
153.000000
 39
3
 62
7
  0
LINE
  8
contour
  6
CONTINUOUS
 10
234.750000
 20
137.000000
 11
295.750000
 21
137.000000
 39
3
 62
7
  0
LINE
  8
contour
  6
CONTINUOUS
 10
231.750000
 20
140.000000
 11
234.750000
 21
137.000000
 39
3
 62
7
  0
LINE
  8
contour
  6
CONTINUOUS
 10
226.750000
 20
155.000000
 11
231.750000
 21
150.000000
 39
3
 62
7
  0
LINE
  8
contour
  6
CONTINUOUS
 10
226.750000
 20
135.000000
 11
231.750000
 21
140.000000
 39
3
 62
7
  0
LINE
  8
contour
  6
CONTINUOUS
 10
298.750000
 20
140.000000
 11
303.750000
 21
135.000000
 39
3
 62
7
  0
LINE
  8
contour
  6
CONTINUOUS
 10
298.750000
 20
150.000000
 11
303.750000
 21
155.000000
 39
3
 62
7
  0
CIRCLE
  8
helper
  6
CONTINUOUS
 10
239.750000
 20
145.000000
 40
2.500000
 39
1
 62
7
  0
CIRCLE
  8
helper
  6
CONTINUOUS
 10
290.750000
 20
145.000000
 40
2.500000
 39
1
 62
7
  0
LINE
  8
helper
  6
CONTINUOUS
 10
239.750000
 20
153.000000
 11
239.750000
 21
137.000000
 39
1
 62
7
  0
LINE
  8
helper
  6
CONTINUOUS
 10
290.750000
 20
153.000000
 11
290.750000
 21
137.000000
 39
1
 62
7
  0
LINE
  8
helper
  6
CONTINUOUS
 10
231.750000
 20
145.000000
 11
298.750000
 21
145.000000
 39
1
 62
7
  0
LINE
  8
bend
  6
DOT
 10
231.750000
 20
150.000000
 11
231.750000
 21
140.000000
 39
2
 62
7
  0
LINE
  8
bend
  6
DOT
 10
298.750000
 20
150.000000
 11
298.750000
 21
140.000000
 39
2
 62
7
  0
LINE
  8
contour
  6
CONTINUOUS
 10
234.750000
 20
118.000000
 11
295.750000
 21
118.000000
 39
3
 62
7
  0
LINE
  8
contour
  6
CONTINUOUS
 10
295.750000
 20
118.000000
 11
298.750000
 21
115.000000
 39
3
 62
7
  0
LINE
  8
contour
  6
CONTINUOUS
 10
295.750000
 20
102.000000
 11
298.750000
 21
105.000000
 39
3
 62
7
  0
LINE
  8
contour
  6
CONTINUOUS
 10
231.750000
 20
115.000000
 11
234.750000
 21
118.000000
 39
3
 62
7
  0
LINE
  8
contour
  6
CONTINUOUS
 10
234.750000
 20
102.000000
 11
295.750000
 21
102.000000
 39
3
 62
7
  0
LINE
  8
contour
  6
CONTINUOUS
 10
231.750000
 20
105.000000
 11
234.750000
 21
102.000000
 39
3
 62
7
  0
LINE
  8
contour
  6
CONTINUOUS
 10
226.750000
 20
120.000000
 11
231.750000
 21
115.000000
 39
3
 62
7
  0
LINE
  8
contour
  6
CONTINUOUS
 10
226.750000
 20
100.000000
 11
231.750000
 21
105.000000
 39
3
 62
7
  0
LINE
  8
contour
  6
CONTINUOUS
 10
298.750000
 20
105.000000
 11
303.750000
 21
100.000000
 39
3
 62
7
  0
LINE
  8
contour
  6
CONTINUOUS
 10
298.750000
 20
115.000000
 11
303.750000
 21
120.000000
 39
3
 62
7
  0
CIRCLE
  8
helper
  6
CONTINUOUS
 10
239.750000
 20
110.000000
 40
2.500000
 39
1
 62
7
  0
CIRCLE
  8
helper
  6
CONTINUOUS
 10
290.750000
 20
110.000000
 40
2.500000
 39
1
 62
7
  0
LINE
  8
helper
  6
CONTINUOUS
 10
239.750000
 20
118.000000
 11
239.750000
 21
102.000000
 39
1
 62
7
  0
LINE
  8
helper
  6
CONTINUOUS
 10
290.750000
 20
118.000000
 11
290.750000
 21
102.000000
 39
1
 62
7
  0
LINE
  8
helper
  6
CONTINUOUS
 10
231.750000
 20
110.000000
 11
298.750000
 21
110.000000
 39
1
 62
7
  0
LINE
  8
bend
  6
DOT
 10
231.750000
 20
115.000000
 11
231.750000
 21
105.000000
 39
2
 62
7
  0
LINE
  8
bend
  6
DOT
 10
298.750000
 20
115.000000
 11
298.750000
 21
105.000000
 39
2
 62
7
  0
LINE
  8
contour
  6
CONTINUOUS
 10
234.750000
 20
183.000000
 11
295.750000
 21
183.000000
 39
3
 62
7
  0
LINE
  8
contour
  6
CONTINUOUS
 10
295.750000
 20
183.000000
 11
298.750000
 21
180.000000
 39
3
 62
7
  0
LINE
  8
contour
  6
CONTINUOUS
 10
295.750000
 20
167.000000
 11
298.750000
 21
170.000000
 39
3
 62
7
  0
LINE
  8
contour
  6
CONTINUOUS
 10
231.750000
 20
180.000000
 11
234.750000
 21
183.000000
 39
3
 62
7
  0
LINE
  8
contour
  6
CONTINUOUS
 10
234.750000
 20
167.000000
 11
295.750000
 21
167.000000
 39
3
 62
7
  0
LINE
  8
contour
  6
CONTINUOUS
 10
231.750000
 20
170.000000
 11
234.750000
 21
167.000000
 39
3
 62
7
  0
LINE
  8
contour
  6
CONTINUOUS
 10
226.750000
 20
185.000000
 11
231.750000
 21
180.000000
 39
3
 62
7
  0
LINE
  8
contour
  6
CONTINUOUS
 10
226.750000
 20
165.000000
 11
231.750000
 21
170.000000
 39
3
 62
7
  0
LINE
  8
contour
  6
CONTINUOUS
 10
298.750000
 20
170.000000
 11
303.750000
 21
165.000000
 39
3
 62
7
  0
LINE
  8
contour
  6
CONTINUOUS
 10
298.750000
 20
180.000000
 11
303.750000
 21
185.000000
 39
3
 62
7
  0
CIRCLE
  8
helper
  6
CONTINUOUS
 10
239.750000
 20
175.000000
 40
2.500000
 39
1
 62
7
  0
CIRCLE
  8
helper
  6
CONTINUOUS
 10
290.750000
 20
175.000000
 40
2.500000
 39
1
 62
7
  0
LINE
  8
helper
  6
CONTINUOUS
 10
239.750000
 20
183.000000
 11
239.750000
 21
167.000000
 39
1
 62
7
  0
LINE
  8
helper
  6
CONTINUOUS
 10
290.750000
 20
183.000000
 11
290.750000
 21
167.000000
 39
1
 62
7
  0
LINE
  8
helper
  6
CONTINUOUS
 10
231.750000
 20
175.000000
 11
298.750000
 21
175.000000
 39
1
 62
7
  0
LINE
  8
bend
  6
DOT
 10
231.750000
 20
180.000000
 11
231.750000
 21
170.000000
 39
2
 62
7
  0
LINE
  8
bend
  6
DOT
 10
298.750000
 20
180.000000
 11
298.750000
 21
170.000000
 39
2
 62
7
  0
LINE
  8
contour
  6
CONTINUOUS
 10
234.750000
 20
213.000000
 11
295.750000
 21
213.000000
 39
3
 62
7
  0
LINE
  8
contour
  6
CONTINUOUS
 10
295.750000
 20
213.000000
 11
298.750000
 21
210.000000
 39
3
 62
7
  0
LINE
  8
contour
  6
CONTINUOUS
 10
295.750000
 20
197.000000
 11
298.750000
 21
200.000000
 39
3
 62
7
  0
LINE
  8
contour
  6
CONTINUOUS
 10
231.750000
 20
210.000000
 11
234.750000
 21
213.000000
 39
3
 62
7
  0
LINE
  8
contour
  6
CONTINUOUS
 10
234.750000
 20
197.000000
 11
295.750000
 21
197.000000
 39
3
 62
7
  0
LINE
  8
contour
  6
CONTINUOUS
 10
231.750000
 20
200.000000
 11
234.750000
 21
197.000000
 39
3
 62
7
  0
LINE
  8
contour
  6
CONTINUOUS
 10
226.750000
 20
215.000000
 11
231.750000
 21
210.000000
 39
3
 62
7
  0
LINE
  8
contour
  6
CONTINUOUS
 10
226.750000
 20
195.000000
 11
231.750000
 21
200.000000
 39
3
 62
7
  0
LINE
  8
contour
  6
CONTINUOUS
 10
298.750000
 20
200.000000
 11
303.750000
 21
195.000000
 39
3
 62
7
  0
LINE
  8
contour
  6
CONTINUOUS
 10
298.750000
 20
210.000000
 11
303.750000
 21
215.000000
 39
3
 62
7
  0
CIRCLE
  8
helper
  6
CONTINUOUS
 10
239.750000
 20
205.000000
 40
2.500000
 39
1
 62
7
  0
CIRCLE
  8
helper
  6
CONTINUOUS
 10
290.750000
 20
205.000000
 40
2.500000
 39
1
 62
7
  0
LINE
  8
helper
  6
CONTINUOUS
 10
239.750000
 20
213.000000
 11
239.750000
 21
197.000000
 39
1
 62
7
  0
LINE
  8
helper
  6
CONTINUOUS
 10
290.750000
 20
213.000000
 11
290.750000
 21
197.000000
 39
1
 62
7
  0
LINE
  8
helper
  6
CONTINUOUS
 10
231.750000
 20
205.000000
 11
298.750000
 21
205.000000
 39
1
 62
7
  0
LINE
  8
bend
  6
DOT
 10
231.750000
 20
210.000000
 11
231.750000
 21
200.000000
 39
2
 62
7
  0
LINE
  8
bend
  6
DOT
 10
298.750000
 20
210.000000
 11
298.750000
 21
200.000000
 39
2
 62
7
  0
LINE
  8
contour
  6
CONTINUOUS
 10
234.750000
 20
243.000000
 11
295.750000
 21
243.000000
 39
3
 62
7
  0
LINE
  8
contour
  6
CONTINUOUS
 10
295.750000
 20
243.000000
 11
298.750000
 21
240.000000
 39
3
 62
7
  0
LINE
  8
contour
  6
CONTINUOUS
 10
295.750000
 20
227.000000
 11
298.750000
 21
230.000000
 39
3
 62
7
  0
LINE
  8
contour
  6
CONTINUOUS
 10
231.750000
 20
240.000000
 11
234.750000
 21
243.000000
 39
3
 62
7
  0
LINE
  8
contour
  6
CONTINUOUS
 10
234.750000
 20
227.000000
 11
295.750000
 21
227.000000
 39
3
 62
7
  0
LINE
  8
contour
  6
CONTINUOUS
 10
231.750000
 20
230.000000
 11
234.750000
 21
227.000000
 39
3
 62
7
  0
LINE
  8
contour
  6
CONTINUOUS
 10
226.750000
 20
245.000000
 11
231.750000
 21
240.000000
 39
3
 62
7
  0
LINE
  8
contour
  6
CONTINUOUS
 10
226.750000
 20
225.000000
 11
231.750000
 21
230.000000
 39
3
 62
7
  0
LINE
  8
contour
  6
CONTINUOUS
 10
298.750000
 20
230.000000
 11
303.750000
 21
225.000000
 39
3
 62
7
  0
LINE
  8
contour
  6
CONTINUOUS
 10
298.750000
 20
240.000000
 11
303.750000
 21
245.000000
 39
3
 62
7
  0
CIRCLE
  8
helper
  6
CONTINUOUS
 10
239.750000
 20
235.000000
 40
2.500000
 39
1
 62
7
  0
CIRCLE
  8
helper
  6
CONTINUOUS
 10
290.750000
 20
235.000000
 40
2.500000
 39
1
 62
7
  0
LINE
  8
helper
  6
CONTINUOUS
 10
239.750000
 20
243.000000
 11
239.750000
 21
227.000000
 39
1
 62
7
  0
LINE
  8
helper
  6
CONTINUOUS
 10
290.750000
 20
243.000000
 11
290.750000
 21
227.000000
 39
1
 62
7
  0
LINE
  8
helper
  6
CONTINUOUS
 10
231.750000
 20
235.000000
 11
298.750000
 21
235.000000
 39
1
 62
7
  0
LINE
  8
bend
  6
DOT
 10
231.750000
 20
240.000000
 11
231.750000
 21
230.000000
 39
2
 62
7
  0
LINE
  8
bend
  6
DOT
 10
298.750000
 20
240.000000
 11
298.750000
 21
230.000000
 39
2
 62
7
  0
LINE
  8
contour
  6
CONTINUOUS
 10
234.750000
 20
88.000000
 11
295.750000
 21
88.000000
 39
3
 62
7
  0
LINE
  8
contour
  6
CONTINUOUS
 10
295.750000
 20
88.000000
 11
298.750000
 21
85.000000
 39
3
 62
7
  0
LINE
  8
contour
  6
CONTINUOUS
 10
295.750000
 20
72.000000
 11
298.750000
 21
75.000000
 39
3
 62
7
  0
LINE
  8
contour
  6
CONTINUOUS
 10
231.750000
 20
85.000000
 11
234.750000
 21
88.000000
 39
3
 62
7
  0
LINE
  8
contour
  6
CONTINUOUS
 10
234.750000
 20
72.000000
 11
295.750000
 21
72.000000
 39
3
 62
7
  0
LINE
  8
contour
  6
CONTINUOUS
 10
231.750000
 20
75.000000
 11
234.750000
 21
72.000000
 39
3
 62
7
  0
LINE
  8
contour
  6
CONTINUOUS
 10
226.750000
 20
90.000000
 11
231.750000
 21
85.000000
 39
3
 62
7
  0
LINE
  8
contour
  6
CONTINUOUS
 10
226.750000
 20
70.000000
 11
231.750000
 21
75.000000
 39
3
 62
7
  0
LINE
  8
contour
  6
CONTINUOUS
 10
298.750000
 20
75.000000
 11
303.750000
 21
70.000000
 39
3
 62
7
  0
LINE
  8
contour
  6
CONTINUOUS
 10
298.750000
 20
85.000000
 11
303.750000
 21
90.000000
 39
3
 62
7
  0
CIRCLE
  8
helper
  6
CONTINUOUS
 10
239.750000
 20
80.000000
 40
2.500000
 39
1
 62
7
  0
CIRCLE
  8
helper
  6
CONTINUOUS
 10
290.750000
 20
80.000000
 40
2.500000
 39
1
 62
7
  0
LINE
  8
helper
  6
CONTINUOUS
 10
239.750000
 20
88.000000
 11
239.750000
 21
72.000000
 39
1
 62
7
  0
LINE
  8
helper
  6
CONTINUOUS
 10
290.750000
 20
88.000000
 11
290.750000
 21
72.000000
 39
1
 62
7
  0
LINE
  8
helper
  6
CONTINUOUS
 10
231.750000
 20
80.000000
 11
298.750000
 21
80.000000
 39
1
 62
7
  0
LINE
  8
bend
  6
DOT
 10
231.750000
 20
85.000000
 11
231.750000
 21
75.000000
 39
2
 62
7
  0
LINE
  8
bend
  6
DOT
 10
298.750000
 20
85.000000
 11
298.750000
 21
75.000000
 39
2
 62
7
  0
LINE
  8
contour
  6
CONTINUOUS
 10
234.750000
 20
58.000000
 11
295.750000
 21
58.000000
 39
3
 62
7
  0
LINE
  8
contour
  6
CONTINUOUS
 10
295.750000
 20
58.000000
 11
298.750000
 21
55.000000
 39
3
 62
7
  0
LINE
  8
contour
  6
CONTINUOUS
 10
295.750000
 20
42.000000
 11
298.750000
 21
45.000000
 39
3
 62
7
  0
LINE
  8
contour
  6
CONTINUOUS
 10
231.750000
 20
55.000000
 11
234.750000
 21
58.000000
 39
3
 62
7
  0
LINE
  8
contour
  6
CONTINUOUS
 10
234.750000
 20
42.000000
 11
295.750000
 21
42.000000
 39
3
 62
7
  0
LINE
  8
contour
  6
CONTINUOUS
 10
231.750000
 20
45.000000
 11
234.750000
 21
42.000000
 39
3
 62
7
  0
LINE
  8
contour
  6
CONTINUOUS
 10
226.750000
 20
60.000000
 11
231.750000
 21
55.000000
 39
3
 62
7
  0
LINE
  8
contour
  6
CONTINUOUS
 10
226.750000
 20
40.000000
 11
231.750000
 21
45.000000
 39
3
 62
7
  0
LINE
  8
contour
  6
CONTINUOUS
 10
298.750000
 20
45.000000
 11
303.750000
 21
40.000000
 39
3
 62
7
  0
LINE
  8
contour
  6
CONTINUOUS
 10
298.750000
 20
55.000000
 11
303.750000
 21
60.000000
 39
3
 62
7
  0
CIRCLE
  8
helper
  6
CONTINUOUS
 10
239.750000
 20
50.000000
 40
2.500000
 39
1
 62
7
  0
CIRCLE
  8
helper
  6
CONTINUOUS
 10
290.750000
 20
50.000000
 40
2.500000
 39
1
 62
7
  0
LINE
  8
helper
  6
CONTINUOUS
 10
239.750000
 20
58.000000
 11
239.750000
 21
42.000000
 39
1
 62
7
  0
LINE
  8
helper
  6
CONTINUOUS
 10
290.750000
 20
58.000000
 11
290.750000
 21
42.000000
 39
1
 62
7
  0
LINE
  8
helper
  6
CONTINUOUS
 10
231.750000
 20
50.000000
 11
298.750000
 21
50.000000
 39
1
 62
7
  0
LINE
  8
bend
  6
DOT
 10
231.750000
 20
55.000000
 11
231.750000
 21
45.000000
 39
2
 62
7
  0
LINE
  8
bend
  6
DOT
 10
298.750000
 20
55.000000
 11
298.750000
 21
45.000000
 39
2
 62
7
  0
LINE
  8
contour
  6
CONTINUOUS
 10
234.750000
 20
28.000000
 11
295.750000
 21
28.000000
 39
3
 62
7
  0
LINE
  8
contour
  6
CONTINUOUS
 10
295.750000
 20
28.000000
 11
298.750000
 21
25.000000
 39
3
 62
7
  0
LINE
  8
contour
  6
CONTINUOUS
 10
295.750000
 20
12.000000
 11
298.750000
 21
15.000000
 39
3
 62
7
  0
LINE
  8
contour
  6
CONTINUOUS
 10
231.750000
 20
25.000000
 11
234.750000
 21
28.000000
 39
3
 62
7
  0
LINE
  8
contour
  6
CONTINUOUS
 10
234.750000
 20
12.000000
 11
295.750000
 21
12.000000
 39
3
 62
7
  0
LINE
  8
contour
  6
CONTINUOUS
 10
231.750000
 20
15.000000
 11
234.750000
 21
12.000000
 39
3
 62
7
  0
LINE
  8
contour
  6
CONTINUOUS
 10
226.750000
 20
30.000000
 11
231.750000
 21
25.000000
 39
3
 62
7
  0
LINE
  8
contour
  6
CONTINUOUS
 10
226.750000
 20
10.000000
 11
231.750000
 21
15.000000
 39
3
 62
7
  0
LINE
  8
contour
  6
CONTINUOUS
 10
298.750000
 20
15.000000
 11
303.750000
 21
10.000000
 39
3
 62
7
  0
LINE
  8
contour
  6
CONTINUOUS
 10
298.750000
 20
25.000000
 11
303.750000
 21
30.000000
 39
3
 62
7
  0
CIRCLE
  8
helper
  6
CONTINUOUS
 10
239.750000
 20
20.000000
 40
2.500000
 39
1
 62
7
  0
CIRCLE
  8
helper
  6
CONTINUOUS
 10
290.750000
 20
20.000000
 40
2.500000
 39
1
 62
7
  0
LINE
  8
helper
  6
CONTINUOUS
 10
239.750000
 20
28.000000
 11
239.750000
 21
12.000000
 39
1
 62
7
  0
LINE
  8
helper
  6
CONTINUOUS
 10
290.750000
 20
28.000000
 11
290.750000
 21
12.000000
 39
1
 62
7
  0
LINE
  8
helper
  6
CONTINUOUS
 10
231.750000
 20
20.000000
 11
298.750000
 21
20.000000
 39
1
 62
7
  0
LINE
  8
bend
  6
DOT
 10
231.750000
 20
25.000000
 11
231.750000
 21
15.000000
 39
2
 62
7
  0
LINE
  8
bend
  6
DOT
 10
298.750000
 20
25.000000
 11
298.750000
 21
15.000000
 39
2
 62
7
  0
LINE
  8
contour
  6
CONTINUOUS
 10
234.750000
 20
-117.000000
 11
295.750000
 21
-117.000000
 39
3
 62
7
  0
LINE
  8
contour
  6
CONTINUOUS
 10
295.750000
 20
-117.000000
 11
298.750000
 21
-120.000000
 39
3
 62
7
  0
LINE
  8
contour
  6
CONTINUOUS
 10
295.750000
 20
-133.000000
 11
298.750000
 21
-130.000000
 39
3
 62
7
  0
LINE
  8
contour
  6
CONTINUOUS
 10
231.750000
 20
-120.000000
 11
234.750000
 21
-117.000000
 39
3
 62
7
  0
LINE
  8
contour
  6
CONTINUOUS
 10
234.750000
 20
-133.000000
 11
295.750000
 21
-133.000000
 39
3
 62
7
  0
LINE
  8
contour
  6
CONTINUOUS
 10
231.750000
 20
-130.000000
 11
234.750000
 21
-133.000000
 39
3
 62
7
  0
LINE
  8
contour
  6
CONTINUOUS
 10
226.750000
 20
-115.000000
 11
231.750000
 21
-120.000000
 39
3
 62
7
  0
LINE
  8
contour
  6
CONTINUOUS
 10
226.750000
 20
-135.000000
 11
231.750000
 21
-130.000000
 39
3
 62
7
  0
LINE
  8
contour
  6
CONTINUOUS
 10
298.750000
 20
-130.000000
 11
303.750000
 21
-135.000000
 39
3
 62
7
  0
LINE
  8
contour
  6
CONTINUOUS
 10
298.750000
 20
-120.000000
 11
303.750000
 21
-115.000000
 39
3
 62
7
  0
CIRCLE
  8
helper
  6
CONTINUOUS
 10
239.750000
 20
-125.000000
 40
2.500000
 39
1
 62
7
  0
CIRCLE
  8
helper
  6
CONTINUOUS
 10
290.750000
 20
-125.000000
 40
2.500000
 39
1
 62
7
  0
LINE
  8
helper
  6
CONTINUOUS
 10
239.750000
 20
-117.000000
 11
239.750000
 21
-133.000000
 39
1
 62
7
  0
LINE
  8
helper
  6
CONTINUOUS
 10
290.750000
 20
-117.000000
 11
290.750000
 21
-133.000000
 39
1
 62
7
  0
LINE
  8
helper
  6
CONTINUOUS
 10
231.750000
 20
-125.000000
 11
298.750000
 21
-125.000000
 39
1
 62
7
  0
LINE
  8
bend
  6
DOT
 10
231.750000
 20
-120.000000
 11
231.750000
 21
-130.000000
 39
2
 62
7
  0
LINE
  8
bend
  6
DOT
 10
298.750000
 20
-120.000000
 11
298.750000
 21
-130.000000
 39
2
 62
7
  0
LINE
  8
contour
  6
CONTINUOUS
 10
234.750000
 20
-152.000000
 11
295.750000
 21
-152.000000
 39
3
 62
7
  0
LINE
  8
contour
  6
CONTINUOUS
 10
295.750000
 20
-152.000000
 11
298.750000
 21
-155.000000
 39
3
 62
7
  0
LINE
  8
contour
  6
CONTINUOUS
 10
295.750000
 20
-168.000000
 11
298.750000
 21
-165.000000
 39
3
 62
7
  0
LINE
  8
contour
  6
CONTINUOUS
 10
231.750000
 20
-155.000000
 11
234.750000
 21
-152.000000
 39
3
 62
7
  0
LINE
  8
contour
  6
CONTINUOUS
 10
234.750000
 20
-168.000000
 11
295.750000
 21
-168.000000
 39
3
 62
7
  0
LINE
  8
contour
  6
CONTINUOUS
 10
231.750000
 20
-165.000000
 11
234.750000
 21
-168.000000
 39
3
 62
7
  0
LINE
  8
contour
  6
CONTINUOUS
 10
226.750000
 20
-150.000000
 11
231.750000
 21
-155.000000
 39
3
 62
7
  0
LINE
  8
contour
  6
CONTINUOUS
 10
226.750000
 20
-170.000000
 11
231.750000
 21
-165.000000
 39
3
 62
7
  0
LINE
  8
contour
  6
CONTINUOUS
 10
298.750000
 20
-165.000000
 11
303.750000
 21
-170.000000
 39
3
 62
7
  0
LINE
  8
contour
  6
CONTINUOUS
 10
298.750000
 20
-155.000000
 11
303.750000
 21
-150.000000
 39
3
 62
7
  0
CIRCLE
  8
helper
  6
CONTINUOUS
 10
239.750000
 20
-160.000000
 40
2.500000
 39
1
 62
7
  0
CIRCLE
  8
helper
  6
CONTINUOUS
 10
290.750000
 20
-160.000000
 40
2.500000
 39
1
 62
7
  0
LINE
  8
helper
  6
CONTINUOUS
 10
239.750000
 20
-152.000000
 11
239.750000
 21
-168.000000
 39
1
 62
7
  0
LINE
  8
helper
  6
CONTINUOUS
 10
290.750000
 20
-152.000000
 11
290.750000
 21
-168.000000
 39
1
 62
7
  0
LINE
  8
helper
  6
CONTINUOUS
 10
231.750000
 20
-160.000000
 11
298.750000
 21
-160.000000
 39
1
 62
7
  0
LINE
  8
bend
  6
DOT
 10
231.750000
 20
-155.000000
 11
231.750000
 21
-165.000000
 39
2
 62
7
  0
LINE
  8
bend
  6
DOT
 10
298.750000
 20
-155.000000
 11
298.750000
 21
-165.000000
 39
2
 62
7
  0
LINE
  8
contour
  6
CONTINUOUS
 10
234.750000
 20
-87.000000
 11
295.750000
 21
-87.000000
 39
3
 62
7
  0
LINE
  8
contour
  6
CONTINUOUS
 10
295.750000
 20
-87.000000
 11
298.750000
 21
-90.000000
 39
3
 62
7
  0
LINE
  8
contour
  6
CONTINUOUS
 10
295.750000
 20
-103.000000
 11
298.750000
 21
-100.000000
 39
3
 62
7
  0
LINE
  8
contour
  6
CONTINUOUS
 10
231.750000
 20
-90.000000
 11
234.750000
 21
-87.000000
 39
3
 62
7
  0
LINE
  8
contour
  6
CONTINUOUS
 10
234.750000
 20
-103.000000
 11
295.750000
 21
-103.000000
 39
3
 62
7
  0
LINE
  8
contour
  6
CONTINUOUS
 10
231.750000
 20
-100.000000
 11
234.750000
 21
-103.000000
 39
3
 62
7
  0
LINE
  8
contour
  6
CONTINUOUS
 10
226.750000
 20
-85.000000
 11
231.750000
 21
-90.000000
 39
3
 62
7
  0
LINE
  8
contour
  6
CONTINUOUS
 10
226.750000
 20
-105.000000
 11
231.750000
 21
-100.000000
 39
3
 62
7
  0
LINE
  8
contour
  6
CONTINUOUS
 10
298.750000
 20
-100.000000
 11
303.750000
 21
-105.000000
 39
3
 62
7
  0
LINE
  8
contour
  6
CONTINUOUS
 10
298.750000
 20
-90.000000
 11
303.750000
 21
-85.000000
 39
3
 62
7
  0
CIRCLE
  8
helper
  6
CONTINUOUS
 10
239.750000
 20
-95.000000
 40
2.500000
 39
1
 62
7
  0
CIRCLE
  8
helper
  6
CONTINUOUS
 10
290.750000
 20
-95.000000
 40
2.500000
 39
1
 62
7
  0
LINE
  8
helper
  6
CONTINUOUS
 10
239.750000
 20
-87.000000
 11
239.750000
 21
-103.000000
 39
1
 62
7
  0
LINE
  8
helper
  6
CONTINUOUS
 10
290.750000
 20
-87.000000
 11
290.750000
 21
-103.000000
 39
1
 62
7
  0
LINE
  8
helper
  6
CONTINUOUS
 10
231.750000
 20
-95.000000
 11
298.750000
 21
-95.000000
 39
1
 62
7
  0
LINE
  8
bend
  6
DOT
 10
231.750000
 20
-90.000000
 11
231.750000
 21
-100.000000
 39
2
 62
7
  0
LINE
  8
bend
  6
DOT
 10
298.750000
 20
-90.000000
 11
298.750000
 21
-100.000000
 39
2
 62
7
  0
LINE
  8
contour
  6
CONTINUOUS
 10
234.750000
 20
-57.000000
 11
295.750000
 21
-57.000000
 39
3
 62
7
  0
LINE
  8
contour
  6
CONTINUOUS
 10
295.750000
 20
-57.000000
 11
298.750000
 21
-60.000000
 39
3
 62
7
  0
LINE
  8
contour
  6
CONTINUOUS
 10
295.750000
 20
-73.000000
 11
298.750000
 21
-70.000000
 39
3
 62
7
  0
LINE
  8
contour
  6
CONTINUOUS
 10
231.750000
 20
-60.000000
 11
234.750000
 21
-57.000000
 39
3
 62
7
  0
LINE
  8
contour
  6
CONTINUOUS
 10
234.750000
 20
-73.000000
 11
295.750000
 21
-73.000000
 39
3
 62
7
  0
LINE
  8
contour
  6
CONTINUOUS
 10
231.750000
 20
-70.000000
 11
234.750000
 21
-73.000000
 39
3
 62
7
  0
LINE
  8
contour
  6
CONTINUOUS
 10
226.750000
 20
-55.000000
 11
231.750000
 21
-60.000000
 39
3
 62
7
  0
LINE
  8
contour
  6
CONTINUOUS
 10
226.750000
 20
-75.000000
 11
231.750000
 21
-70.000000
 39
3
 62
7
  0
LINE
  8
contour
  6
CONTINUOUS
 10
298.750000
 20
-70.000000
 11
303.750000
 21
-75.000000
 39
3
 62
7
  0
LINE
  8
contour
  6
CONTINUOUS
 10
298.750000
 20
-60.000000
 11
303.750000
 21
-55.000000
 39
3
 62
7
  0
CIRCLE
  8
helper
  6
CONTINUOUS
 10
239.750000
 20
-65.000000
 40
2.500000
 39
1
 62
7
  0
CIRCLE
  8
helper
  6
CONTINUOUS
 10
290.750000
 20
-65.000000
 40
2.500000
 39
1
 62
7
  0
LINE
  8
helper
  6
CONTINUOUS
 10
239.750000
 20
-57.000000
 11
239.750000
 21
-73.000000
 39
1
 62
7
  0
LINE
  8
helper
  6
CONTINUOUS
 10
290.750000
 20
-57.000000
 11
290.750000
 21
-73.000000
 39
1
 62
7
  0
LINE
  8
helper
  6
CONTINUOUS
 10
231.750000
 20
-65.000000
 11
298.750000
 21
-65.000000
 39
1
 62
7
  0
LINE
  8
bend
  6
DOT
 10
231.750000
 20
-60.000000
 11
231.750000
 21
-70.000000
 39
2
 62
7
  0
LINE
  8
bend
  6
DOT
 10
298.750000
 20
-60.000000
 11
298.750000
 21
-70.000000
 39
2
 62
7
  0
LINE
  8
contour
  6
CONTINUOUS
 10
234.750000
 20
-27.000000
 11
295.750000
 21
-27.000000
 39
3
 62
7
  0
LINE
  8
contour
  6
CONTINUOUS
 10
295.750000
 20
-27.000000
 11
298.750000
 21
-30.000000
 39
3
 62
7
  0
LINE
  8
contour
  6
CONTINUOUS
 10
295.750000
 20
-43.000000
 11
298.750000
 21
-40.000000
 39
3
 62
7
  0
LINE
  8
contour
  6
CONTINUOUS
 10
231.750000
 20
-30.000000
 11
234.750000
 21
-27.000000
 39
3
 62
7
  0
LINE
  8
contour
  6
CONTINUOUS
 10
234.750000
 20
-43.000000
 11
295.750000
 21
-43.000000
 39
3
 62
7
  0
LINE
  8
contour
  6
CONTINUOUS
 10
231.750000
 20
-40.000000
 11
234.750000
 21
-43.000000
 39
3
 62
7
  0
LINE
  8
contour
  6
CONTINUOUS
 10
226.750000
 20
-25.000000
 11
231.750000
 21
-30.000000
 39
3
 62
7
  0
LINE
  8
contour
  6
CONTINUOUS
 10
226.750000
 20
-45.000000
 11
231.750000
 21
-40.000000
 39
3
 62
7
  0
LINE
  8
contour
  6
CONTINUOUS
 10
298.750000
 20
-40.000000
 11
303.750000
 21
-45.000000
 39
3
 62
7
  0
LINE
  8
contour
  6
CONTINUOUS
 10
298.750000
 20
-30.000000
 11
303.750000
 21
-25.000000
 39
3
 62
7
  0
CIRCLE
  8
helper
  6
CONTINUOUS
 10
239.750000
 20
-35.000000
 40
2.500000
 39
1
 62
7
  0
CIRCLE
  8
helper
  6
CONTINUOUS
 10
290.750000
 20
-35.000000
 40
2.500000
 39
1
 62
7
  0
LINE
  8
helper
  6
CONTINUOUS
 10
239.750000
 20
-27.000000
 11
239.750000
 21
-43.000000
 39
1
 62
7
  0
LINE
  8
helper
  6
CONTINUOUS
 10
290.750000
 20
-27.000000
 11
290.750000
 21
-43.000000
 39
1
 62
7
  0
LINE
  8
helper
  6
CONTINUOUS
 10
231.750000
 20
-35.000000
 11
298.750000
 21
-35.000000
 39
1
 62
7
  0
LINE
  8
bend
  6
DOT
 10
231.750000
 20
-30.000000
 11
231.750000
 21
-40.000000
 39
2
 62
7
  0
LINE
  8
bend
  6
DOT
 10
298.750000
 20
-30.000000
 11
298.750000
 21
-40.000000
 39
2
 62
7
  0
LINE
  8
contour
  6
CONTINUOUS
 10
234.750000
 20
-182.000000
 11
295.750000
 21
-182.000000
 39
3
 62
7
  0
LINE
  8
contour
  6
CONTINUOUS
 10
295.750000
 20
-182.000000
 11
298.750000
 21
-185.000000
 39
3
 62
7
  0
LINE
  8
contour
  6
CONTINUOUS
 10
295.750000
 20
-198.000000
 11
298.750000
 21
-195.000000
 39
3
 62
7
  0
LINE
  8
contour
  6
CONTINUOUS
 10
231.750000
 20
-185.000000
 11
234.750000
 21
-182.000000
 39
3
 62
7
  0
LINE
  8
contour
  6
CONTINUOUS
 10
234.750000
 20
-198.000000
 11
295.750000
 21
-198.000000
 39
3
 62
7
  0
LINE
  8
contour
  6
CONTINUOUS
 10
231.750000
 20
-195.000000
 11
234.750000
 21
-198.000000
 39
3
 62
7
  0
LINE
  8
contour
  6
CONTINUOUS
 10
226.750000
 20
-180.000000
 11
231.750000
 21
-185.000000
 39
3
 62
7
  0
LINE
  8
contour
  6
CONTINUOUS
 10
226.750000
 20
-200.000000
 11
231.750000
 21
-195.000000
 39
3
 62
7
  0
LINE
  8
contour
  6
CONTINUOUS
 10
298.750000
 20
-195.000000
 11
303.750000
 21
-200.000000
 39
3
 62
7
  0
LINE
  8
contour
  6
CONTINUOUS
 10
298.750000
 20
-185.000000
 11
303.750000
 21
-180.000000
 39
3
 62
7
  0
CIRCLE
  8
helper
  6
CONTINUOUS
 10
239.750000
 20
-190.000000
 40
2.500000
 39
1
 62
7
  0
CIRCLE
  8
helper
  6
CONTINUOUS
 10
290.750000
 20
-190.000000
 40
2.500000
 39
1
 62
7
  0
LINE
  8
helper
  6
CONTINUOUS
 10
239.750000
 20
-182.000000
 11
239.750000
 21
-198.000000
 39
1
 62
7
  0
LINE
  8
helper
  6
CONTINUOUS
 10
290.750000
 20
-182.000000
 11
290.750000
 21
-198.000000
 39
1
 62
7
  0
LINE
  8
helper
  6
CONTINUOUS
 10
231.750000
 20
-190.000000
 11
298.750000
 21
-190.000000
 39
1
 62
7
  0
LINE
  8
bend
  6
DOT
 10
231.750000
 20
-185.000000
 11
231.750000
 21
-195.000000
 39
2
 62
7
  0
LINE
  8
bend
  6
DOT
 10
298.750000
 20
-185.000000
 11
298.750000
 21
-195.000000
 39
2
 62
7
  0
LINE
  8
contour
  6
CONTINUOUS
 10
234.750000
 20
-212.000000
 11
295.750000
 21
-212.000000
 39
3
 62
7
  0
LINE
  8
contour
  6
CONTINUOUS
 10
295.750000
 20
-212.000000
 11
298.750000
 21
-215.000000
 39
3
 62
7
  0
LINE
  8
contour
  6
CONTINUOUS
 10
295.750000
 20
-228.000000
 11
298.750000
 21
-225.000000
 39
3
 62
7
  0
LINE
  8
contour
  6
CONTINUOUS
 10
231.750000
 20
-215.000000
 11
234.750000
 21
-212.000000
 39
3
 62
7
  0
LINE
  8
contour
  6
CONTINUOUS
 10
234.750000
 20
-228.000000
 11
295.750000
 21
-228.000000
 39
3
 62
7
  0
LINE
  8
contour
  6
CONTINUOUS
 10
231.750000
 20
-225.000000
 11
234.750000
 21
-228.000000
 39
3
 62
7
  0
LINE
  8
contour
  6
CONTINUOUS
 10
226.750000
 20
-210.000000
 11
231.750000
 21
-215.000000
 39
3
 62
7
  0
LINE
  8
contour
  6
CONTINUOUS
 10
226.750000
 20
-230.000000
 11
231.750000
 21
-225.000000
 39
3
 62
7
  0
LINE
  8
contour
  6
CONTINUOUS
 10
298.750000
 20
-225.000000
 11
303.750000
 21
-230.000000
 39
3
 62
7
  0
LINE
  8
contour
  6
CONTINUOUS
 10
298.750000
 20
-215.000000
 11
303.750000
 21
-210.000000
 39
3
 62
7
  0
CIRCLE
  8
helper
  6
CONTINUOUS
 10
239.750000
 20
-220.000000
 40
2.500000
 39
1
 62
7
  0
CIRCLE
  8
helper
  6
CONTINUOUS
 10
290.750000
 20
-220.000000
 40
2.500000
 39
1
 62
7
  0
LINE
  8
helper
  6
CONTINUOUS
 10
239.750000
 20
-212.000000
 11
239.750000
 21
-228.000000
 39
1
 62
7
  0
LINE
  8
helper
  6
CONTINUOUS
 10
290.750000
 20
-212.000000
 11
290.750000
 21
-228.000000
 39
1
 62
7
  0
LINE
  8
helper
  6
CONTINUOUS
 10
231.750000
 20
-220.000000
 11
298.750000
 21
-220.000000
 39
1
 62
7
  0
LINE
  8
bend
  6
DOT
 10
231.750000
 20
-215.000000
 11
231.750000
 21
-225.000000
 39
2
 62
7
  0
LINE
  8
bend
  6
DOT
 10
298.750000
 20
-215.000000
 11
298.750000
 21
-225.000000
 39
2
 62
7
  0
LINE
  8
contour
  6
CONTINUOUS
 10
234.750000
 20
-242.000000
 11
295.750000
 21
-242.000000
 39
3
 62
7
  0
LINE
  8
contour
  6
CONTINUOUS
 10
295.750000
 20
-242.000000
 11
298.750000
 21
-245.000000
 39
3
 62
7
  0
LINE
  8
contour
  6
CONTINUOUS
 10
295.750000
 20
-258.000000
 11
298.750000
 21
-255.000000
 39
3
 62
7
  0
LINE
  8
contour
  6
CONTINUOUS
 10
231.750000
 20
-245.000000
 11
234.750000
 21
-242.000000
 39
3
 62
7
  0
LINE
  8
contour
  6
CONTINUOUS
 10
234.750000
 20
-258.000000
 11
295.750000
 21
-258.000000
 39
3
 62
7
  0
LINE
  8
contour
  6
CONTINUOUS
 10
231.750000
 20
-255.000000
 11
234.750000
 21
-258.000000
 39
3
 62
7
  0
LINE
  8
contour
  6
CONTINUOUS
 10
226.750000
 20
-240.000000
 11
231.750000
 21
-245.000000
 39
3
 62
7
  0
LINE
  8
contour
  6
CONTINUOUS
 10
226.750000
 20
-260.000000
 11
231.750000
 21
-255.000000
 39
3
 62
7
  0
LINE
  8
contour
  6
CONTINUOUS
 10
298.750000
 20
-255.000000
 11
303.750000
 21
-260.000000
 39
3
 62
7
  0
LINE
  8
contour
  6
CONTINUOUS
 10
298.750000
 20
-245.000000
 11
303.750000
 21
-240.000000
 39
3
 62
7
  0
CIRCLE
  8
helper
  6
CONTINUOUS
 10
239.750000
 20
-250.000000
 40
2.500000
 39
1
 62
7
  0
CIRCLE
  8
helper
  6
CONTINUOUS
 10
290.750000
 20
-250.000000
 40
2.500000
 39
1
 62
7
  0
LINE
  8
helper
  6
CONTINUOUS
 10
239.750000
 20
-242.000000
 11
239.750000
 21
-258.000000
 39
1
 62
7
  0
LINE
  8
helper
  6
CONTINUOUS
 10
290.750000
 20
-242.000000
 11
290.750000
 21
-258.000000
 39
1
 62
7
  0
LINE
  8
helper
  6
CONTINUOUS
 10
231.750000
 20
-250.000000
 11
298.750000
 21
-250.000000
 39
1
 62
7
  0
LINE
  8
bend
  6
DOT
 10
231.750000
 20
-245.000000
 11
231.750000
 21
-255.000000
 39
2
 62
7
  0
LINE
  8
bend
  6
DOT
 10
298.750000
 20
-245.000000
 11
298.750000
 21
-255.000000
 39
2
 62
7
  0
LINE
  8
contour
  6
CONTINUOUS
 10
312.750000
 20
155.000000
 11
317.750000
 21
160.000000
 39
3
 62
7
  0
LINE
  8
contour
  6
CONTINUOUS
 10
303.750000
 20
155.000000
 11
312.750000
 21
155.000000
 39
3
 62
7
  0
LINE
  8
contour
  6
CONTINUOUS
 10
303.750000
 20
135.000000
 11
312.750000
 21
135.000000
 39
3
 62
7
  0
LINE
  8
contour
  6
CONTINUOUS
 10
312.750000
 20
135.000000
 11
317.750000
 21
130.000000
 39
3
 62
7
  0
LINE
  8
bend
  6
DOT
 10
298.750000
 20
140.000000
 11
317.750000
 21
140.000000
 39
2
 62
7
  0
LINE
  8
contour
  6
CONTINUOUS
 10
317.750000
 20
160.000000
 11
317.750000
 21
150.000000
 39
3
 62
7
  0
LINE
  8
contour
  6
CONTINUOUS
 10
317.750000
 20
140.000000
 11
317.750000
 21
130.000000
 39
3
 62
7
  0
LINE
  8
bend
  6
DOT
 10
298.750000
 20
150.000000
 11
317.750000
 21
150.000000
 39
2
 62
7
  0
LINE
  8
contour
  6
CONTINUOUS
 10
320.750000
 20
145.000000
 11
317.750000
 21
140.000000
 39
3
 62
7
  0
LINE
  8
contour
  6
CONTINUOUS
 10
320.750000
 20
145.000000
 11
317.750000
 21
150.000000
 39
3
 62
7
  0
LINE
  8
contour
  6
CONTINUOUS
 10
313.750000
 20
120.000000
 11
318.750000
 21
125.000000
 39
3
 62
7
  0
LINE
  8
contour
  6
CONTINUOUS
 10
303.750000
 20
120.000000
 11
313.750000
 21
120.000000
 39
3
 62
7
  0
LINE
  8
contour
  6
CONTINUOUS
 10
303.750000
 20
100.000000
 11
313.750000
 21
100.000000
 39
3
 62
7
  0
LINE
  8
contour
  6
CONTINUOUS
 10
313.750000
 20
100.000000
 11
318.750000
 21
95.000000
 39
3
 62
7
  0
LINE
  8
bend
  6
DOT
 10
298.750000
 20
105.000000
 11
318.750000
 21
105.000000
 39
2
 62
7
  0
LINE
  8
contour
  6
CONTINUOUS
 10
318.750000
 20
125.000000
 11
318.750000
 21
115.000000
 39
3
 62
7
  0
LINE
  8
contour
  6
CONTINUOUS
 10
318.750000
 20
105.000000
 11
318.750000
 21
95.000000
 39
3
 62
7
  0
LINE
  8
bend
  6
DOT
 10
298.750000
 20
115.000000
 11
318.750000
 21
115.000000
 39
2
 62
7
  0
LINE
  8
contour
  6
CONTINUOUS
 10
321.750000
 20
110.000000
 11
318.750000
 21
105.000000
 39
3
 62
7
  0
LINE
  8
contour
  6
CONTINUOUS
 10
321.750000
 20
110.000000
 11
318.750000
 21
115.000000
 39
3
 62
7
  0
LINE
  8
contour
  6
CONTINUOUS
 10
312.750000
 20
185.000000
 11
317.750000
 21
190.000000
 39
3
 62
7
  0
LINE
  8
contour
  6
CONTINUOUS
 10
303.750000
 20
185.000000
 11
312.750000
 21
185.000000
 39
3
 62
7
  0
LINE
  8
contour
  6
CONTINUOUS
 10
303.750000
 20
165.000000
 11
312.750000
 21
165.000000
 39
3
 62
7
  0
LINE
  8
contour
  6
CONTINUOUS
 10
312.750000
 20
165.000000
 11
317.750000
 21
160.000000
 39
3
 62
7
  0
LINE
  8
bend
  6
DOT
 10
298.750000
 20
170.000000
 11
317.750000
 21
170.000000
 39
2
 62
7
  0
LINE
  8
contour
  6
CONTINUOUS
 10
317.750000
 20
190.000000
 11
317.750000
 21
180.000000
 39
3
 62
7
  0
LINE
  8
contour
  6
CONTINUOUS
 10
317.750000
 20
170.000000
 11
317.750000
 21
160.000000
 39
3
 62
7
  0
LINE
  8
bend
  6
DOT
 10
298.750000
 20
180.000000
 11
317.750000
 21
180.000000
 39
2
 62
7
  0
LINE
  8
contour
  6
CONTINUOUS
 10
320.750000
 20
175.000000
 11
317.750000
 21
170.000000
 39
3
 62
7
  0
LINE
  8
contour
  6
CONTINUOUS
 10
320.750000
 20
175.000000
 11
317.750000
 21
180.000000
 39
3
 62
7
  0
LINE
  8
contour
  6
CONTINUOUS
 10
312.750000
 20
215.000000
 11
317.750000
 21
220.000000
 39
3
 62
7
  0
LINE
  8
contour
  6
CONTINUOUS
 10
303.750000
 20
215.000000
 11
312.750000
 21
215.000000
 39
3
 62
7
  0
LINE
  8
contour
  6
CONTINUOUS
 10
303.750000
 20
195.000000
 11
312.750000
 21
195.000000
 39
3
 62
7
  0
LINE
  8
contour
  6
CONTINUOUS
 10
312.750000
 20
195.000000
 11
317.750000
 21
190.000000
 39
3
 62
7
  0
LINE
  8
bend
  6
DOT
 10
298.750000
 20
200.000000
 11
317.750000
 21
200.000000
 39
2
 62
7
  0
LINE
  8
contour
  6
CONTINUOUS
 10
317.750000
 20
220.000000
 11
317.750000
 21
210.000000
 39
3
 62
7
  0
LINE
  8
contour
  6
CONTINUOUS
 10
317.750000
 20
200.000000
 11
317.750000
 21
190.000000
 39
3
 62
7
  0
LINE
  8
bend
  6
DOT
 10
298.750000
 20
210.000000
 11
317.750000
 21
210.000000
 39
2
 62
7
  0
LINE
  8
contour
  6
CONTINUOUS
 10
320.750000
 20
205.000000
 11
317.750000
 21
200.000000
 39
3
 62
7
  0
LINE
  8
contour
  6
CONTINUOUS
 10
320.750000
 20
205.000000
 11
317.750000
 21
210.000000
 39
3
 62
7
  0
LINE
  8
contour
  6
CONTINUOUS
 10
312.750000
 20
245.000000
 11
317.750000
 21
250.000000
 39
3
 62
7
  0
LINE
  8
contour
  6
CONTINUOUS
 10
303.750000
 20
245.000000
 11
312.750000
 21
245.000000
 39
3
 62
7
  0
LINE
  8
contour
  6
CONTINUOUS
 10
303.750000
 20
225.000000
 11
312.750000
 21
225.000000
 39
3
 62
7
  0
LINE
  8
contour
  6
CONTINUOUS
 10
312.750000
 20
225.000000
 11
317.750000
 21
220.000000
 39
3
 62
7
  0
LINE
  8
bend
  6
DOT
 10
298.750000
 20
230.000000
 11
317.750000
 21
230.000000
 39
2
 62
7
  0
LINE
  8
contour
  6
CONTINUOUS
 10
317.750000
 20
250.000000
 11
317.750000
 21
240.000000
 39
3
 62
7
  0
LINE
  8
contour
  6
CONTINUOUS
 10
317.750000
 20
230.000000
 11
317.750000
 21
220.000000
 39
3
 62
7
  0
LINE
  8
bend
  6
DOT
 10
298.750000
 20
240.000000
 11
317.750000
 21
240.000000
 39
2
 62
7
  0
LINE
  8
contour
  6
CONTINUOUS
 10
320.750000
 20
235.000000
 11
317.750000
 21
230.000000
 39
3
 62
7
  0
LINE
  8
contour
  6
CONTINUOUS
 10
320.750000
 20
235.000000
 11
317.750000
 21
240.000000
 39
3
 62
7
  0
LINE
  8
contour
  6
CONTINUOUS
 10
313.750000
 20
90.000000
 11
318.750000
 21
95.000000
 39
3
 62
7
  0
LINE
  8
contour
  6
CONTINUOUS
 10
303.750000
 20
90.000000
 11
313.750000
 21
90.000000
 39
3
 62
7
  0
LINE
  8
contour
  6
CONTINUOUS
 10
303.750000
 20
70.000000
 11
313.750000
 21
70.000000
 39
3
 62
7
  0
LINE
  8
contour
  6
CONTINUOUS
 10
313.750000
 20
70.000000
 11
318.750000
 21
65.000000
 39
3
 62
7
  0
LINE
  8
bend
  6
DOT
 10
298.750000
 20
75.000000
 11
318.750000
 21
75.000000
 39
2
 62
7
  0
LINE
  8
contour
  6
CONTINUOUS
 10
318.750000
 20
95.000000
 11
318.750000
 21
85.000000
 39
3
 62
7
  0
LINE
  8
contour
  6
CONTINUOUS
 10
318.750000
 20
75.000000
 11
318.750000
 21
65.000000
 39
3
 62
7
  0
LINE
  8
bend
  6
DOT
 10
298.750000
 20
85.000000
 11
318.750000
 21
85.000000
 39
2
 62
7
  0
LINE
  8
contour
  6
CONTINUOUS
 10
321.750000
 20
80.000000
 11
318.750000
 21
75.000000
 39
3
 62
7
  0
LINE
  8
contour
  6
CONTINUOUS
 10
321.750000
 20
80.000000
 11
318.750000
 21
85.000000
 39
3
 62
7
  0
LINE
  8
contour
  6
CONTINUOUS
 10
313.750000
 20
60.000000
 11
318.750000
 21
65.000000
 39
3
 62
7
  0
LINE
  8
contour
  6
CONTINUOUS
 10
303.750000
 20
60.000000
 11
313.750000
 21
60.000000
 39
3
 62
7
  0
LINE
  8
contour
  6
CONTINUOUS
 10
303.750000
 20
40.000000
 11
313.750000
 21
40.000000
 39
3
 62
7
  0
LINE
  8
contour
  6
CONTINUOUS
 10
313.750000
 20
40.000000
 11
318.750000
 21
35.000000
 39
3
 62
7
  0
LINE
  8
bend
  6
DOT
 10
298.750000
 20
45.000000
 11
318.750000
 21
45.000000
 39
2
 62
7
  0
LINE
  8
contour
  6
CONTINUOUS
 10
318.750000
 20
65.000000
 11
318.750000
 21
55.000000
 39
3
 62
7
  0
LINE
  8
contour
  6
CONTINUOUS
 10
318.750000
 20
45.000000
 11
318.750000
 21
35.000000
 39
3
 62
7
  0
LINE
  8
bend
  6
DOT
 10
298.750000
 20
55.000000
 11
318.750000
 21
55.000000
 39
2
 62
7
  0
LINE
  8
contour
  6
CONTINUOUS
 10
321.750000
 20
50.000000
 11
318.750000
 21
45.000000
 39
3
 62
7
  0
LINE
  8
contour
  6
CONTINUOUS
 10
321.750000
 20
50.000000
 11
318.750000
 21
55.000000
 39
3
 62
7
  0
LINE
  8
contour
  6
CONTINUOUS
 10
313.750000
 20
30.000000
 11
318.750000
 21
35.000000
 39
3
 62
7
  0
LINE
  8
contour
  6
CONTINUOUS
 10
303.750000
 20
30.000000
 11
313.750000
 21
30.000000
 39
3
 62
7
  0
LINE
  8
contour
  6
CONTINUOUS
 10
303.750000
 20
10.000000
 11
313.750000
 21
10.000000
 39
3
 62
7
  0
LINE
  8
contour
  6
CONTINUOUS
 10
313.750000
 20
10.000000
 11
318.750000
 21
5.000000
 39
3
 62
7
  0
LINE
  8
bend
  6
DOT
 10
298.750000
 20
15.000000
 11
318.750000
 21
15.000000
 39
2
 62
7
  0
LINE
  8
contour
  6
CONTINUOUS
 10
318.750000
 20
35.000000
 11
318.750000
 21
25.000000
 39
3
 62
7
  0
LINE
  8
contour
  6
CONTINUOUS
 10
318.750000
 20
15.000000
 11
318.750000
 21
5.000000
 39
3
 62
7
  0
LINE
  8
bend
  6
DOT
 10
298.750000
 20
25.000000
 11
318.750000
 21
25.000000
 39
2
 62
7
  0
LINE
  8
contour
  6
CONTINUOUS
 10
321.750000
 20
20.000000
 11
318.750000
 21
15.000000
 39
3
 62
7
  0
LINE
  8
contour
  6
CONTINUOUS
 10
321.750000
 20
20.000000
 11
318.750000
 21
25.000000
 39
3
 62
7
  0
LINE
  8
contour
  6
CONTINUOUS
 10
314.750000
 20
-115.000000
 11
319.750000
 21
-110.000000
 39
3
 62
7
  0
LINE
  8
contour
  6
CONTINUOUS
 10
303.750000
 20
-115.000000
 11
314.750000
 21
-115.000000
 39
3
 62
7
  0
LINE
  8
contour
  6
CONTINUOUS
 10
303.750000
 20
-135.000000
 11
314.750000
 21
-135.000000
 39
3
 62
7
  0
LINE
  8
contour
  6
CONTINUOUS
 10
314.750000
 20
-135.000000
 11
319.750000
 21
-140.000000
 39
3
 62
7
  0
LINE
  8
bend
  6
DOT
 10
298.750000
 20
-130.000000
 11
319.750000
 21
-130.000000
 39
2
 62
7
  0
LINE
  8
contour
  6
CONTINUOUS
 10
319.750000
 20
-110.000000
 11
319.750000
 21
-120.000000
 39
3
 62
7
  0
LINE
  8
contour
  6
CONTINUOUS
 10
319.750000
 20
-130.000000
 11
319.750000
 21
-140.000000
 39
3
 62
7
  0
LINE
  8
bend
  6
DOT
 10
298.750000
 20
-120.000000
 11
319.750000
 21
-120.000000
 39
2
 62
7
  0
LINE
  8
contour
  6
CONTINUOUS
 10
322.750000
 20
-125.000000
 11
319.750000
 21
-130.000000
 39
3
 62
7
  0
LINE
  8
contour
  6
CONTINUOUS
 10
322.750000
 20
-125.000000
 11
319.750000
 21
-120.000000
 39
3
 62
7
  0
LINE
  8
contour
  6
CONTINUOUS
 10
315.750000
 20
-150.000000
 11
320.750000
 21
-145.000000
 39
3
 62
7
  0
LINE
  8
contour
  6
CONTINUOUS
 10
303.750000
 20
-150.000000
 11
315.750000
 21
-150.000000
 39
3
 62
7
  0
LINE
  8
contour
  6
CONTINUOUS
 10
303.750000
 20
-170.000000
 11
315.750000
 21
-170.000000
 39
3
 62
7
  0
LINE
  8
contour
  6
CONTINUOUS
 10
315.750000
 20
-170.000000
 11
320.750000
 21
-175.000000
 39
3
 62
7
  0
LINE
  8
bend
  6
DOT
 10
298.750000
 20
-165.000000
 11
320.750000
 21
-165.000000
 39
2
 62
7
  0
LINE
  8
contour
  6
CONTINUOUS
 10
320.750000
 20
-145.000000
 11
320.750000
 21
-155.000000
 39
3
 62
7
  0
LINE
  8
contour
  6
CONTINUOUS
 10
320.750000
 20
-165.000000
 11
320.750000
 21
-175.000000
 39
3
 62
7
  0
LINE
  8
bend
  6
DOT
 10
298.750000
 20
-155.000000
 11
320.750000
 21
-155.000000
 39
2
 62
7
  0
LINE
  8
contour
  6
CONTINUOUS
 10
323.750000
 20
-160.000000
 11
320.750000
 21
-165.000000
 39
3
 62
7
  0
LINE
  8
contour
  6
CONTINUOUS
 10
323.750000
 20
-160.000000
 11
320.750000
 21
-155.000000
 39
3
 62
7
  0
LINE
  8
contour
  6
CONTINUOUS
 10
314.750000
 20
-85.000000
 11
319.750000
 21
-80.000000
 39
3
 62
7
  0
LINE
  8
contour
  6
CONTINUOUS
 10
303.750000
 20
-85.000000
 11
314.750000
 21
-85.000000
 39
3
 62
7
  0
LINE
  8
contour
  6
CONTINUOUS
 10
303.750000
 20
-105.000000
 11
314.750000
 21
-105.000000
 39
3
 62
7
  0
LINE
  8
contour
  6
CONTINUOUS
 10
314.750000
 20
-105.000000
 11
319.750000
 21
-110.000000
 39
3
 62
7
  0
LINE
  8
bend
  6
DOT
 10
298.750000
 20
-100.000000
 11
319.750000
 21
-100.000000
 39
2
 62
7
  0
LINE
  8
contour
  6
CONTINUOUS
 10
319.750000
 20
-80.000000
 11
319.750000
 21
-90.000000
 39
3
 62
7
  0
LINE
  8
contour
  6
CONTINUOUS
 10
319.750000
 20
-100.000000
 11
319.750000
 21
-110.000000
 39
3
 62
7
  0
LINE
  8
bend
  6
DOT
 10
298.750000
 20
-90.000000
 11
319.750000
 21
-90.000000
 39
2
 62
7
  0
LINE
  8
contour
  6
CONTINUOUS
 10
322.750000
 20
-95.000000
 11
319.750000
 21
-100.000000
 39
3
 62
7
  0
LINE
  8
contour
  6
CONTINUOUS
 10
322.750000
 20
-95.000000
 11
319.750000
 21
-90.000000
 39
3
 62
7
  0
LINE
  8
contour
  6
CONTINUOUS
 10
314.750000
 20
-55.000000
 11
319.750000
 21
-50.000000
 39
3
 62
7
  0
LINE
  8
contour
  6
CONTINUOUS
 10
303.750000
 20
-55.000000
 11
314.750000
 21
-55.000000
 39
3
 62
7
  0
LINE
  8
contour
  6
CONTINUOUS
 10
303.750000
 20
-75.000000
 11
314.750000
 21
-75.000000
 39
3
 62
7
  0
LINE
  8
contour
  6
CONTINUOUS
 10
314.750000
 20
-75.000000
 11
319.750000
 21
-80.000000
 39
3
 62
7
  0
LINE
  8
bend
  6
DOT
 10
298.750000
 20
-70.000000
 11
319.750000
 21
-70.000000
 39
2
 62
7
  0
LINE
  8
contour
  6
CONTINUOUS
 10
319.750000
 20
-50.000000
 11
319.750000
 21
-60.000000
 39
3
 62
7
  0
LINE
  8
contour
  6
CONTINUOUS
 10
319.750000
 20
-70.000000
 11
319.750000
 21
-80.000000
 39
3
 62
7
  0
LINE
  8
bend
  6
DOT
 10
298.750000
 20
-60.000000
 11
319.750000
 21
-60.000000
 39
2
 62
7
  0
LINE
  8
contour
  6
CONTINUOUS
 10
322.750000
 20
-65.000000
 11
319.750000
 21
-70.000000
 39
3
 62
7
  0
LINE
  8
contour
  6
CONTINUOUS
 10
322.750000
 20
-65.000000
 11
319.750000
 21
-60.000000
 39
3
 62
7
  0
LINE
  8
contour
  6
CONTINUOUS
 10
314.750000
 20
-25.000000
 11
319.750000
 21
-20.000000
 39
3
 62
7
  0
LINE
  8
contour
  6
CONTINUOUS
 10
303.750000
 20
-25.000000
 11
314.750000
 21
-25.000000
 39
3
 62
7
  0
LINE
  8
contour
  6
CONTINUOUS
 10
303.750000
 20
-45.000000
 11
314.750000
 21
-45.000000
 39
3
 62
7
  0
LINE
  8
contour
  6
CONTINUOUS
 10
314.750000
 20
-45.000000
 11
319.750000
 21
-50.000000
 39
3
 62
7
  0
LINE
  8
bend
  6
DOT
 10
298.750000
 20
-40.000000
 11
319.750000
 21
-40.000000
 39
2
 62
7
  0
LINE
  8
contour
  6
CONTINUOUS
 10
319.750000
 20
-20.000000
 11
319.750000
 21
-30.000000
 39
3
 62
7
  0
LINE
  8
contour
  6
CONTINUOUS
 10
319.750000
 20
-40.000000
 11
319.750000
 21
-50.000000
 39
3
 62
7
  0
LINE
  8
bend
  6
DOT
 10
298.750000
 20
-30.000000
 11
319.750000
 21
-30.000000
 39
2
 62
7
  0
LINE
  8
contour
  6
CONTINUOUS
 10
322.750000
 20
-35.000000
 11
319.750000
 21
-40.000000
 39
3
 62
7
  0
LINE
  8
contour
  6
CONTINUOUS
 10
322.750000
 20
-35.000000
 11
319.750000
 21
-30.000000
 39
3
 62
7
  0
LINE
  8
contour
  6
CONTINUOUS
 10
315.750000
 20
-180.000000
 11
320.750000
 21
-175.000000
 39
3
 62
7
  0
LINE
  8
contour
  6
CONTINUOUS
 10
303.750000
 20
-180.000000
 11
315.750000
 21
-180.000000
 39
3
 62
7
  0
LINE
  8
contour
  6
CONTINUOUS
 10
303.750000
 20
-200.000000
 11
315.750000
 21
-200.000000
 39
3
 62
7
  0
LINE
  8
contour
  6
CONTINUOUS
 10
315.750000
 20
-200.000000
 11
320.750000
 21
-205.000000
 39
3
 62
7
  0
LINE
  8
bend
  6
DOT
 10
298.750000
 20
-195.000000
 11
320.750000
 21
-195.000000
 39
2
 62
7
  0
LINE
  8
contour
  6
CONTINUOUS
 10
320.750000
 20
-175.000000
 11
320.750000
 21
-185.000000
 39
3
 62
7
  0
LINE
  8
contour
  6
CONTINUOUS
 10
320.750000
 20
-195.000000
 11
320.750000
 21
-205.000000
 39
3
 62
7
  0
LINE
  8
bend
  6
DOT
 10
298.750000
 20
-185.000000
 11
320.750000
 21
-185.000000
 39
2
 62
7
  0
LINE
  8
contour
  6
CONTINUOUS
 10
323.750000
 20
-190.000000
 11
320.750000
 21
-195.000000
 39
3
 62
7
  0
LINE
  8
contour
  6
CONTINUOUS
 10
323.750000
 20
-190.000000
 11
320.750000
 21
-185.000000
 39
3
 62
7
  0
LINE
  8
contour
  6
CONTINUOUS
 10
315.750000
 20
-210.000000
 11
320.750000
 21
-205.000000
 39
3
 62
7
  0
LINE
  8
contour
  6
CONTINUOUS
 10
303.750000
 20
-210.000000
 11
315.750000
 21
-210.000000
 39
3
 62
7
  0
LINE
  8
contour
  6
CONTINUOUS
 10
303.750000
 20
-230.000000
 11
315.750000
 21
-230.000000
 39
3
 62
7
  0
LINE
  8
contour
  6
CONTINUOUS
 10
315.750000
 20
-230.000000
 11
320.750000
 21
-235.000000
 39
3
 62
7
  0
LINE
  8
bend
  6
DOT
 10
298.750000
 20
-225.000000
 11
320.750000
 21
-225.000000
 39
2
 62
7
  0
LINE
  8
contour
  6
CONTINUOUS
 10
320.750000
 20
-205.000000
 11
320.750000
 21
-215.000000
 39
3
 62
7
  0
LINE
  8
contour
  6
CONTINUOUS
 10
320.750000
 20
-225.000000
 11
320.750000
 21
-235.000000
 39
3
 62
7
  0
LINE
  8
bend
  6
DOT
 10
298.750000
 20
-215.000000
 11
320.750000
 21
-215.000000
 39
2
 62
7
  0
LINE
  8
contour
  6
CONTINUOUS
 10
323.750000
 20
-220.000000
 11
320.750000
 21
-225.000000
 39
3
 62
7
  0
LINE
  8
contour
  6
CONTINUOUS
 10
323.750000
 20
-220.000000
 11
320.750000
 21
-215.000000
 39
3
 62
7
  0
LINE
  8
contour
  6
CONTINUOUS
 10
315.750000
 20
-240.000000
 11
320.750000
 21
-235.000000
 39
3
 62
7
  0
LINE
  8
contour
  6
CONTINUOUS
 10
303.750000
 20
-240.000000
 11
315.750000
 21
-240.000000
 39
3
 62
7
  0
LINE
  8
contour
  6
CONTINUOUS
 10
303.750000
 20
-260.000000
 11
315.750000
 21
-260.000000
 39
3
 62
7
  0
LINE
  8
contour
  6
CONTINUOUS
 10
315.750000
 20
-260.000000
 11
320.750000
 21
-265.000000
 39
3
 62
7
  0
LINE
  8
bend
  6
DOT
 10
298.750000
 20
-255.000000
 11
320.750000
 21
-255.000000
 39
2
 62
7
  0
LINE
  8
contour
  6
CONTINUOUS
 10
320.750000
 20
-235.000000
 11
320.750000
 21
-245.000000
 39
3
 62
7
  0
LINE
  8
contour
  6
CONTINUOUS
 10
320.750000
 20
-255.000000
 11
320.750000
 21
-265.000000
 39
3
 62
7
  0
LINE
  8
bend
  6
DOT
 10
298.750000
 20
-245.000000
 11
320.750000
 21
-245.000000
 39
2
 62
7
  0
LINE
  8
contour
  6
CONTINUOUS
 10
323.750000
 20
-250.000000
 11
320.750000
 21
-255.000000
 39
3
 62
7
  0
LINE
  8
contour
  6
CONTINUOUS
 10
323.750000
 20
-250.000000
 11
320.750000
 21
-245.000000
 39
3
 62
7
  0
LINE
  8
contour
  6
CONTINUOUS
 10
212.750000
 20
130.000000
 11
217.750000
 21
135.000000
 39
3
 62
7
  0
LINE
  8
contour
  6
CONTINUOUS
 10
217.750000
 20
135.000000
 11
226.750000
 21
135.000000
 39
3
 62
7
  0
LINE
  8
contour
  6
CONTINUOUS
 10
212.750000
 20
160.000000
 11
217.750000
 21
155.000000
 39
3
 62
7
  0
LINE
  8
contour
  6
CONTINUOUS
 10
217.750000
 20
155.000000
 11
226.750000
 21
155.000000
 39
3
 62
7
  0
LINE
  8
bend
  6
DOT
 10
212.750000
 20
150.000000
 11
231.750000
 21
150.000000
 39
2
 62
7
  0
LINE
  8
bend
  6
DOT
 10
212.750000
 20
140.000000
 11
231.750000
 21
140.000000
 39
2
 62
7
  0
TEXT
  8
contour
  6
CONTINUOUS
 10
218.700048
 20
140.890829
 40
3.000000
 50
0.000000
 72
0
  7
Normal#0.300000#1.800000
  1
Bend
 39
3
 62
7
  0
LINE
  8
contour
  6
CONTINUOUS
 10
212.750000
 20
160.000000
 11
212.750000
 21
150.000000
 39
3
 62
7
  0
LINE
  8
contour
  6
CONTINUOUS
 10
212.750000
 20
140.000000
 11
212.750000
 21
130.000000
 39
3
 62
7
  0
LINE
  8
contour
  6
CONTINUOUS
 10
209.750000
 20
145.000000
 11
212.750000
 21
140.000000
 39
3
 62
7
  0
LINE
  8
contour
  6
CONTINUOUS
 10
209.750000
 20
145.000000
 11
212.750000
 21
150.000000
 39
3
 62
7
  0
LINE
  8
contour
  6
CONTINUOUS
 10
211.750000
 20
95.000000
 11
216.750000
 21
100.000000
 39
3
 62
7
  0
LINE
  8
contour
  6
CONTINUOUS
 10
216.750000
 20
100.000000
 11
226.750000
 21
100.000000
 39
3
 62
7
  0
LINE
  8
contour
  6
CONTINUOUS
 10
211.750000
 20
125.000000
 11
216.750000
 21
120.000000
 39
3
 62
7
  0
LINE
  8
contour
  6
CONTINUOUS
 10
216.750000
 20
120.000000
 11
226.750000
 21
120.000000
 39
3
 62
7
  0
LINE
  8
bend
  6
DOT
 10
211.750000
 20
115.000000
 11
231.750000
 21
115.000000
 39
2
 62
7
  0
LINE
  8
bend
  6
DOT
 10
211.750000
 20
105.000000
 11
231.750000
 21
105.000000
 39
2
 62
7
  0
TEXT
  8
contour
  6
CONTINUOUS
 10
218.700048
 20
105.890829
 40
3.000000
 50
0.000000
 72
0
  7
Normal#0.300000#1.800000
  1
Bend
 39
3
 62
7
  0
LINE
  8
contour
  6
CONTINUOUS
 10
211.750000
 20
125.000000
 11
211.750000
 21
115.000000
 39
3
 62
7
  0
LINE
  8
contour
  6
CONTINUOUS
 10
211.750000
 20
105.000000
 11
211.750000
 21
95.000000
 39
3
 62
7
  0
LINE
  8
contour
  6
CONTINUOUS
 10
208.750000
 20
110.000000
 11
211.750000
 21
105.000000
 39
3
 62
7
  0
LINE
  8
contour
  6
CONTINUOUS
 10
208.750000
 20
110.000000
 11
211.750000
 21
115.000000
 39
3
 62
7
  0
LINE
  8
contour
  6
CONTINUOUS
 10
212.750000
 20
160.000000
 11
217.750000
 21
165.000000
 39
3
 62
7
  0
LINE
  8
contour
  6
CONTINUOUS
 10
217.750000
 20
165.000000
 11
226.750000
 21
165.000000
 39
3
 62
7
  0
LINE
  8
contour
  6
CONTINUOUS
 10
212.750000
 20
190.000000
 11
217.750000
 21
185.000000
 39
3
 62
7
  0
LINE
  8
contour
  6
CONTINUOUS
 10
217.750000
 20
185.000000
 11
226.750000
 21
185.000000
 39
3
 62
7
  0
LINE
  8
bend
  6
DOT
 10
212.750000
 20
180.000000
 11
231.750000
 21
180.000000
 39
2
 62
7
  0
LINE
  8
bend
  6
DOT
 10
212.750000
 20
170.000000
 11
231.750000
 21
170.000000
 39
2
 62
7
  0
TEXT
  8
contour
  6
CONTINUOUS
 10
218.700048
 20
170.890829
 40
3.000000
 50
0.000000
 72
0
  7
Normal#0.300000#1.800000
  1
Bend
 39
3
 62
7
  0
LINE
  8
contour
  6
CONTINUOUS
 10
212.750000
 20
190.000000
 11
212.750000
 21
180.000000
 39
3
 62
7
  0
LINE
  8
contour
  6
CONTINUOUS
 10
212.750000
 20
170.000000
 11
212.750000
 21
160.000000
 39
3
 62
7
  0
LINE
  8
contour
  6
CONTINUOUS
 10
209.750000
 20
175.000000
 11
212.750000
 21
170.000000
 39
3
 62
7
  0
LINE
  8
contour
  6
CONTINUOUS
 10
209.750000
 20
175.000000
 11
212.750000
 21
180.000000
 39
3
 62
7
  0
LINE
  8
contour
  6
CONTINUOUS
 10
212.750000
 20
190.000000
 11
217.750000
 21
195.000000
 39
3
 62
7
  0
LINE
  8
contour
  6
CONTINUOUS
 10
217.750000
 20
195.000000
 11
226.750000
 21
195.000000
 39
3
 62
7
  0
LINE
  8
contour
  6
CONTINUOUS
 10
212.750000
 20
220.000000
 11
217.750000
 21
215.000000
 39
3
 62
7
  0
LINE
  8
contour
  6
CONTINUOUS
 10
217.750000
 20
215.000000
 11
226.750000
 21
215.000000
 39
3
 62
7
  0
LINE
  8
bend
  6
DOT
 10
212.750000
 20
210.000000
 11
231.750000
 21
210.000000
 39
2
 62
7
  0
LINE
  8
bend
  6
DOT
 10
212.750000
 20
200.000000
 11
231.750000
 21
200.000000
 39
2
 62
7
  0
TEXT
  8
contour
  6
CONTINUOUS
 10
218.700048
 20
200.890829
 40
3.000000
 50
0.000000
 72
0
  7
Normal#0.300000#1.800000
  1
Bend
 39
3
 62
7
  0
LINE
  8
contour
  6
CONTINUOUS
 10
212.750000
 20
220.000000
 11
212.750000
 21
210.000000
 39
3
 62
7
  0
LINE
  8
contour
  6
CONTINUOUS
 10
212.750000
 20
200.000000
 11
212.750000
 21
190.000000
 39
3
 62
7
  0
LINE
  8
contour
  6
CONTINUOUS
 10
209.750000
 20
205.000000
 11
212.750000
 21
200.000000
 39
3
 62
7
  0
LINE
  8
contour
  6
CONTINUOUS
 10
209.750000
 20
205.000000
 11
212.750000
 21
210.000000
 39
3
 62
7
  0
LINE
  8
contour
  6
CONTINUOUS
 10
212.750000
 20
220.000000
 11
217.750000
 21
225.000000
 39
3
 62
7
  0
LINE
  8
contour
  6
CONTINUOUS
 10
217.750000
 20
225.000000
 11
226.750000
 21
225.000000
 39
3
 62
7
  0
LINE
  8
contour
  6
CONTINUOUS
 10
212.750000
 20
250.000000
 11
217.750000
 21
245.000000
 39
3
 62
7
  0
LINE
  8
contour
  6
CONTINUOUS
 10
217.750000
 20
245.000000
 11
226.750000
 21
245.000000
 39
3
 62
7
  0
LINE
  8
bend
  6
DOT
 10
212.750000
 20
240.000000
 11
231.750000
 21
240.000000
 39
2
 62
7
  0
LINE
  8
bend
  6
DOT
 10
212.750000
 20
230.000000
 11
231.750000
 21
230.000000
 39
2
 62
7
  0
TEXT
  8
contour
  6
CONTINUOUS
 10
218.700048
 20
230.890829
 40
3.000000
 50
0.000000
 72
0
  7
Normal#0.300000#1.800000
  1
Bend
 39
3
 62
7
  0
LINE
  8
contour
  6
CONTINUOUS
 10
212.750000
 20
250.000000
 11
212.750000
 21
240.000000
 39
3
 62
7
  0
LINE
  8
contour
  6
CONTINUOUS
 10
212.750000
 20
230.000000
 11
212.750000
 21
220.000000
 39
3
 62
7
  0
LINE
  8
contour
  6
CONTINUOUS
 10
209.750000
 20
235.000000
 11
212.750000
 21
230.000000
 39
3
 62
7
  0
LINE
  8
contour
  6
CONTINUOUS
 10
209.750000
 20
235.000000
 11
212.750000
 21
240.000000
 39
3
 62
7
  0
LINE
  8
contour
  6
CONTINUOUS
 10
211.750000
 20
65.000000
 11
216.750000
 21
70.000000
 39
3
 62
7
  0
LINE
  8
contour
  6
CONTINUOUS
 10
216.750000
 20
70.000000
 11
226.750000
 21
70.000000
 39
3
 62
7
  0
LINE
  8
contour
  6
CONTINUOUS
 10
211.750000
 20
95.000000
 11
216.750000
 21
90.000000
 39
3
 62
7
  0
LINE
  8
contour
  6
CONTINUOUS
 10
216.750000
 20
90.000000
 11
226.750000
 21
90.000000
 39
3
 62
7
  0
LINE
  8
bend
  6
DOT
 10
211.750000
 20
85.000000
 11
231.750000
 21
85.000000
 39
2
 62
7
  0
LINE
  8
bend
  6
DOT
 10
211.750000
 20
75.000000
 11
231.750000
 21
75.000000
 39
2
 62
7
  0
TEXT
  8
contour
  6
CONTINUOUS
 10
218.700048
 20
75.890829
 40
3.000000
 50
0.000000
 72
0
  7
Normal#0.300000#1.800000
  1
Bend
 39
3
 62
7
  0
LINE
  8
contour
  6
CONTINUOUS
 10
211.750000
 20
95.000000
 11
211.750000
 21
85.000000
 39
3
 62
7
  0
LINE
  8
contour
  6
CONTINUOUS
 10
211.750000
 20
75.000000
 11
211.750000
 21
65.000000
 39
3
 62
7
  0
LINE
  8
contour
  6
CONTINUOUS
 10
208.750000
 20
80.000000
 11
211.750000
 21
75.000000
 39
3
 62
7
  0
LINE
  8
contour
  6
CONTINUOUS
 10
208.750000
 20
80.000000
 11
211.750000
 21
85.000000
 39
3
 62
7
  0
LINE
  8
contour
  6
CONTINUOUS
 10
211.750000
 20
35.000000
 11
216.750000
 21
40.000000
 39
3
 62
7
  0
LINE
  8
contour
  6
CONTINUOUS
 10
216.750000
 20
40.000000
 11
226.750000
 21
40.000000
 39
3
 62
7
  0
LINE
  8
contour
  6
CONTINUOUS
 10
211.750000
 20
65.000000
 11
216.750000
 21
60.000000
 39
3
 62
7
  0
LINE
  8
contour
  6
CONTINUOUS
 10
216.750000
 20
60.000000
 11
226.750000
 21
60.000000
 39
3
 62
7
  0
LINE
  8
bend
  6
DOT
 10
211.750000
 20
55.000000
 11
231.750000
 21
55.000000
 39
2
 62
7
  0
LINE
  8
bend
  6
DOT
 10
211.750000
 20
45.000000
 11
231.750000
 21
45.000000
 39
2
 62
7
  0
TEXT
  8
contour
  6
CONTINUOUS
 10
218.700048
 20
45.890829
 40
3.000000
 50
0.000000
 72
0
  7
Normal#0.300000#1.800000
  1
Bend
 39
3
 62
7
  0
LINE
  8
contour
  6
CONTINUOUS
 10
211.750000
 20
65.000000
 11
211.750000
 21
55.000000
 39
3
 62
7
  0
LINE
  8
contour
  6
CONTINUOUS
 10
211.750000
 20
45.000000
 11
211.750000
 21
35.000000
 39
3
 62
7
  0
LINE
  8
contour
  6
CONTINUOUS
 10
208.750000
 20
50.000000
 11
211.750000
 21
45.000000
 39
3
 62
7
  0
LINE
  8
contour
  6
CONTINUOUS
 10
208.750000
 20
50.000000
 11
211.750000
 21
55.000000
 39
3
 62
7
  0
LINE
  8
contour
  6
CONTINUOUS
 10
211.750000
 20
5.000000
 11
216.750000
 21
10.000000
 39
3
 62
7
  0
LINE
  8
contour
  6
CONTINUOUS
 10
216.750000
 20
10.000000
 11
226.750000
 21
10.000000
 39
3
 62
7
  0
LINE
  8
contour
  6
CONTINUOUS
 10
211.750000
 20
35.000000
 11
216.750000
 21
30.000000
 39
3
 62
7
  0
LINE
  8
contour
  6
CONTINUOUS
 10
216.750000
 20
30.000000
 11
226.750000
 21
30.000000
 39
3
 62
7
  0
LINE
  8
bend
  6
DOT
 10
211.750000
 20
25.000000
 11
231.750000
 21
25.000000
 39
2
 62
7
  0
LINE
  8
bend
  6
DOT
 10
211.750000
 20
15.000000
 11
231.750000
 21
15.000000
 39
2
 62
7
  0
TEXT
  8
contour
  6
CONTINUOUS
 10
218.700048
 20
15.890829
 40
3.000000
 50
0.000000
 72
0
  7
Normal#0.300000#1.800000
  1
Bend
 39
3
 62
7
  0
LINE
  8
contour
  6
CONTINUOUS
 10
211.750000
 20
35.000000
 11
211.750000
 21
25.000000
 39
3
 62
7
  0
LINE
  8
contour
  6
CONTINUOUS
 10
211.750000
 20
15.000000
 11
211.750000
 21
5.000000
 39
3
 62
7
  0
LINE
  8
contour
  6
CONTINUOUS
 10
208.750000
 20
20.000000
 11
211.750000
 21
15.000000
 39
3
 62
7
  0
LINE
  8
contour
  6
CONTINUOUS
 10
208.750000
 20
20.000000
 11
211.750000
 21
25.000000
 39
3
 62
7
  0
LINE
  8
contour
  6
CONTINUOUS
 10
210.750000
 20
-140.000000
 11
215.750000
 21
-135.000000
 39
3
 62
7
  0
LINE
  8
contour
  6
CONTINUOUS
 10
215.750000
 20
-135.000000
 11
226.750000
 21
-135.000000
 39
3
 62
7
  0
LINE
  8
contour
  6
CONTINUOUS
 10
210.750000
 20
-110.000000
 11
215.750000
 21
-115.000000
 39
3
 62
7
  0
LINE
  8
contour
  6
CONTINUOUS
 10
215.750000
 20
-115.000000
 11
226.750000
 21
-115.000000
 39
3
 62
7
  0
LINE
  8
bend
  6
DOT
 10
210.750000
 20
-120.000000
 11
231.750000
 21
-120.000000
 39
2
 62
7
  0
LINE
  8
bend
  6
DOT
 10
210.750000
 20
-130.000000
 11
231.750000
 21
-130.000000
 39
2
 62
7
  0
TEXT
  8
contour
  6
CONTINUOUS
 10
218.700048
 20
-129.109171
 40
3.000000
 50
0.000000
 72
0
  7
Normal#0.300000#1.800000
  1
Bend
 39
3
 62
7
  0
LINE
  8
contour
  6
CONTINUOUS
 10
210.750000
 20
-110.000000
 11
210.750000
 21
-120.000000
 39
3
 62
7
  0
LINE
  8
contour
  6
CONTINUOUS
 10
210.750000
 20
-130.000000
 11
210.750000
 21
-140.000000
 39
3
 62
7
  0
LINE
  8
contour
  6
CONTINUOUS
 10
207.750000
 20
-125.000000
 11
210.750000
 21
-130.000000
 39
3
 62
7
  0
LINE
  8
contour
  6
CONTINUOUS
 10
207.750000
 20
-125.000000
 11
210.750000
 21
-120.000000
 39
3
 62
7
  0
LINE
  8
contour
  6
CONTINUOUS
 10
209.750000
 20
-175.000000
 11
214.750000
 21
-170.000000
 39
3
 62
7
  0
LINE
  8
contour
  6
CONTINUOUS
 10
214.750000
 20
-170.000000
 11
226.750000
 21
-170.000000
 39
3
 62
7
  0
LINE
  8
contour
  6
CONTINUOUS
 10
209.750000
 20
-145.000000
 11
214.750000
 21
-150.000000
 39
3
 62
7
  0
LINE
  8
contour
  6
CONTINUOUS
 10
214.750000
 20
-150.000000
 11
226.750000
 21
-150.000000
 39
3
 62
7
  0
LINE
  8
bend
  6
DOT
 10
209.750000
 20
-155.000000
 11
231.750000
 21
-155.000000
 39
2
 62
7
  0
LINE
  8
bend
  6
DOT
 10
209.750000
 20
-165.000000
 11
231.750000
 21
-165.000000
 39
2
 62
7
  0
TEXT
  8
contour
  6
CONTINUOUS
 10
218.700048
 20
-164.109171
 40
3.000000
 50
0.000000
 72
0
  7
Normal#0.300000#1.800000
  1
Bend
 39
3
 62
7
  0
LINE
  8
contour
  6
CONTINUOUS
 10
209.750000
 20
-145.000000
 11
209.750000
 21
-155.000000
 39
3
 62
7
  0
LINE
  8
contour
  6
CONTINUOUS
 10
209.750000
 20
-165.000000
 11
209.750000
 21
-175.000000
 39
3
 62
7
  0
LINE
  8
contour
  6
CONTINUOUS
 10
206.750000
 20
-160.000000
 11
209.750000
 21
-165.000000
 39
3
 62
7
  0
LINE
  8
contour
  6
CONTINUOUS
 10
206.750000
 20
-160.000000
 11
209.750000
 21
-155.000000
 39
3
 62
7
  0
LINE
  8
contour
  6
CONTINUOUS
 10
210.750000
 20
-110.000000
 11
215.750000
 21
-105.000000
 39
3
 62
7
  0
LINE
  8
contour
  6
CONTINUOUS
 10
215.750000
 20
-105.000000
 11
226.750000
 21
-105.000000
 39
3
 62
7
  0
LINE
  8
contour
  6
CONTINUOUS
 10
210.750000
 20
-80.000000
 11
215.750000
 21
-85.000000
 39
3
 62
7
  0
LINE
  8
contour
  6
CONTINUOUS
 10
215.750000
 20
-85.000000
 11
226.750000
 21
-85.000000
 39
3
 62
7
  0
LINE
  8
bend
  6
DOT
 10
210.750000
 20
-90.000000
 11
231.750000
 21
-90.000000
 39
2
 62
7
  0
LINE
  8
bend
  6
DOT
 10
210.750000
 20
-100.000000
 11
231.750000
 21
-100.000000
 39
2
 62
7
  0
TEXT
  8
contour
  6
CONTINUOUS
 10
218.700048
 20
-99.109171
 40
3.000000
 50
0.000000
 72
0
  7
Normal#0.300000#1.800000
  1
Bend
 39
3
 62
7
  0
LINE
  8
contour
  6
CONTINUOUS
 10
210.750000
 20
-80.000000
 11
210.750000
 21
-90.000000
 39
3
 62
7
  0
LINE
  8
contour
  6
CONTINUOUS
 10
210.750000
 20
-100.000000
 11
210.750000
 21
-110.000000
 39
3
 62
7
  0
LINE
  8
contour
  6
CONTINUOUS
 10
207.750000
 20
-95.000000
 11
210.750000
 21
-100.000000
 39
3
 62
7
  0
LINE
  8
contour
  6
CONTINUOUS
 10
207.750000
 20
-95.000000
 11
210.750000
 21
-90.000000
 39
3
 62
7
  0
LINE
  8
contour
  6
CONTINUOUS
 10
210.750000
 20
-80.000000
 11
215.750000
 21
-75.000000
 39
3
 62
7
  0
LINE
  8
contour
  6
CONTINUOUS
 10
215.750000
 20
-75.000000
 11
226.750000
 21
-75.000000
 39
3
 62
7
  0
LINE
  8
contour
  6
CONTINUOUS
 10
210.750000
 20
-50.000000
 11
215.750000
 21
-55.000000
 39
3
 62
7
  0
LINE
  8
contour
  6
CONTINUOUS
 10
215.750000
 20
-55.000000
 11
226.750000
 21
-55.000000
 39
3
 62
7
  0
LINE
  8
bend
  6
DOT
 10
210.750000
 20
-60.000000
 11
231.750000
 21
-60.000000
 39
2
 62
7
  0
LINE
  8
bend
  6
DOT
 10
210.750000
 20
-70.000000
 11
231.750000
 21
-70.000000
 39
2
 62
7
  0
TEXT
  8
contour
  6
CONTINUOUS
 10
218.700048
 20
-69.109171
 40
3.000000
 50
0.000000
 72
0
  7
Normal#0.300000#1.800000
  1
Bend
 39
3
 62
7
  0
LINE
  8
contour
  6
CONTINUOUS
 10
210.750000
 20
-50.000000
 11
210.750000
 21
-60.000000
 39
3
 62
7
  0
LINE
  8
contour
  6
CONTINUOUS
 10
210.750000
 20
-70.000000
 11
210.750000
 21
-80.000000
 39
3
 62
7
  0
LINE
  8
contour
  6
CONTINUOUS
 10
207.750000
 20
-65.000000
 11
210.750000
 21
-70.000000
 39
3
 62
7
  0
LINE
  8
contour
  6
CONTINUOUS
 10
207.750000
 20
-65.000000
 11
210.750000
 21
-60.000000
 39
3
 62
7
  0
LINE
  8
contour
  6
CONTINUOUS
 10
210.750000
 20
-50.000000
 11
215.750000
 21
-45.000000
 39
3
 62
7
  0
LINE
  8
contour
  6
CONTINUOUS
 10
215.750000
 20
-45.000000
 11
226.750000
 21
-45.000000
 39
3
 62
7
  0
LINE
  8
contour
  6
CONTINUOUS
 10
210.750000
 20
-20.000000
 11
215.750000
 21
-25.000000
 39
3
 62
7
  0
LINE
  8
contour
  6
CONTINUOUS
 10
215.750000
 20
-25.000000
 11
226.750000
 21
-25.000000
 39
3
 62
7
  0
LINE
  8
bend
  6
DOT
 10
210.750000
 20
-30.000000
 11
231.750000
 21
-30.000000
 39
2
 62
7
  0
LINE
  8
bend
  6
DOT
 10
210.750000
 20
-40.000000
 11
231.750000
 21
-40.000000
 39
2
 62
7
  0
TEXT
  8
contour
  6
CONTINUOUS
 10
218.700048
 20
-39.109171
 40
3.000000
 50
0.000000
 72
0
  7
Normal#0.300000#1.800000
  1
Bend
 39
3
 62
7
  0
LINE
  8
contour
  6
CONTINUOUS
 10
210.750000
 20
-20.000000
 11
210.750000
 21
-30.000000
 39
3
 62
7
  0
LINE
  8
contour
  6
CONTINUOUS
 10
210.750000
 20
-40.000000
 11
210.750000
 21
-50.000000
 39
3
 62
7
  0
LINE
  8
contour
  6
CONTINUOUS
 10
207.750000
 20
-35.000000
 11
210.750000
 21
-40.000000
 39
3
 62
7
  0
LINE
  8
contour
  6
CONTINUOUS
 10
207.750000
 20
-35.000000
 11
210.750000
 21
-30.000000
 39
3
 62
7
  0
LINE
  8
contour
  6
CONTINUOUS
 10
209.750000
 20
-205.000000
 11
214.750000
 21
-200.000000
 39
3
 62
7
  0
LINE
  8
contour
  6
CONTINUOUS
 10
214.750000
 20
-200.000000
 11
226.750000
 21
-200.000000
 39
3
 62
7
  0
LINE
  8
contour
  6
CONTINUOUS
 10
209.750000
 20
-175.000000
 11
214.750000
 21
-180.000000
 39
3
 62
7
  0
LINE
  8
contour
  6
CONTINUOUS
 10
214.750000
 20
-180.000000
 11
226.750000
 21
-180.000000
 39
3
 62
7
  0
LINE
  8
bend
  6
DOT
 10
209.750000
 20
-185.000000
 11
231.750000
 21
-185.000000
 39
2
 62
7
  0
LINE
  8
bend
  6
DOT
 10
209.750000
 20
-195.000000
 11
231.750000
 21
-195.000000
 39
2
 62
7
  0
TEXT
  8
contour
  6
CONTINUOUS
 10
218.700048
 20
-194.109171
 40
3.000000
 50
0.000000
 72
0
  7
Normal#0.300000#1.800000
  1
Bend
 39
3
 62
7
  0
LINE
  8
contour
  6
CONTINUOUS
 10
209.750000
 20
-175.000000
 11
209.750000
 21
-185.000000
 39
3
 62
7
  0
LINE
  8
contour
  6
CONTINUOUS
 10
209.750000
 20
-195.000000
 11
209.750000
 21
-205.000000
 39
3
 62
7
  0
LINE
  8
contour
  6
CONTINUOUS
 10
206.750000
 20
-190.000000
 11
209.750000
 21
-195.000000
 39
3
 62
7
  0
LINE
  8
contour
  6
CONTINUOUS
 10
206.750000
 20
-190.000000
 11
209.750000
 21
-185.000000
 39
3
 62
7
  0
LINE
  8
contour
  6
CONTINUOUS
 10
209.750000
 20
-235.000000
 11
214.750000
 21
-230.000000
 39
3
 62
7
  0
LINE
  8
contour
  6
CONTINUOUS
 10
214.750000
 20
-230.000000
 11
226.750000
 21
-230.000000
 39
3
 62
7
  0
LINE
  8
contour
  6
CONTINUOUS
 10
209.750000
 20
-205.000000
 11
214.750000
 21
-210.000000
 39
3
 62
7
  0
LINE
  8
contour
  6
CONTINUOUS
 10
214.750000
 20
-210.000000
 11
226.750000
 21
-210.000000
 39
3
 62
7
  0
LINE
  8
bend
  6
DOT
 10
209.750000
 20
-215.000000
 11
231.750000
 21
-215.000000
 39
2
 62
7
  0
LINE
  8
bend
  6
DOT
 10
209.750000
 20
-225.000000
 11
231.750000
 21
-225.000000
 39
2
 62
7
  0
TEXT
  8
contour
  6
CONTINUOUS
 10
218.700048
 20
-224.109171
 40
3.000000
 50
0.000000
 72
0
  7
Normal#0.300000#1.800000
  1
Bend
 39
3
 62
7
  0
LINE
  8
contour
  6
CONTINUOUS
 10
209.750000
 20
-205.000000
 11
209.750000
 21
-215.000000
 39
3
 62
7
  0
LINE
  8
contour
  6
CONTINUOUS
 10
209.750000
 20
-225.000000
 11
209.750000
 21
-235.000000
 39
3
 62
7
  0
LINE
  8
contour
  6
CONTINUOUS
 10
206.750000
 20
-220.000000
 11
209.750000
 21
-225.000000
 39
3
 62
7
  0
LINE
  8
contour
  6
CONTINUOUS
 10
206.750000
 20
-220.000000
 11
209.750000
 21
-215.000000
 39
3
 62
7
  0
LINE
  8
contour
  6
CONTINUOUS
 10
209.750000
 20
-265.000000
 11
214.750000
 21
-260.000000
 39
3
 62
7
  0
LINE
  8
contour
  6
CONTINUOUS
 10
214.750000
 20
-260.000000
 11
226.750000
 21
-260.000000
 39
3
 62
7
  0
LINE
  8
contour
  6
CONTINUOUS
 10
209.750000
 20
-235.000000
 11
214.750000
 21
-240.000000
 39
3
 62
7
  0
LINE
  8
contour
  6
CONTINUOUS
 10
214.750000
 20
-240.000000
 11
226.750000
 21
-240.000000
 39
3
 62
7
  0
LINE
  8
bend
  6
DOT
 10
209.750000
 20
-245.000000
 11
231.750000
 21
-245.000000
 39
2
 62
7
  0
LINE
  8
bend
  6
DOT
 10
209.750000
 20
-255.000000
 11
231.750000
 21
-255.000000
 39
2
 62
7
  0
TEXT
  8
contour
  6
CONTINUOUS
 10
218.700048
 20
-254.109171
 40
3.000000
 50
0.000000
 72
0
  7
Normal#0.300000#1.800000
  1
Bend
 39
3
 62
7
  0
LINE
  8
contour
  6
CONTINUOUS
 10
209.750000
 20
-235.000000
 11
209.750000
 21
-245.000000
 39
3
 62
7
  0
LINE
  8
contour
  6
CONTINUOUS
 10
209.750000
 20
-255.000000
 11
209.750000
 21
-265.000000
 39
3
 62
7
  0
LINE
  8
contour
  6
CONTINUOUS
 10
206.750000
 20
-250.000000
 11
209.750000
 21
-255.000000
 39
3
 62
7
  0
LINE
  8
contour
  6
CONTINUOUS
 10
206.750000
 20
-250.000000
 11
209.750000
 21
-245.000000
 39
3
 62
7
  0
TEXT
  8
default
  6
CONTINUOUS
 10
262.304204
 20
235.607571
 40
5.000000
 50
0.000000
 72
0
  7
Normal#0.500000#3.000000
  1
19
 39
3
 62
7
  0
TEXT
  8
default
  6
CONTINUOUS
 10
262.304204
 20
205.607571
 40
5.000000
 50
0.000000
 72
0
  7
Normal#0.500000#3.000000
  1
19
 39
3
 62
7
  0
TEXT
  8
default
  6
CONTINUOUS
 10
262.304204
 20
175.607571
 40
5.000000
 50
0.000000
 72
0
  7
Normal#0.500000#3.000000
  1
19
 39
3
 62
7
  0
TEXT
  8
default
  6
CONTINUOUS
 10
262.304204
 20
145.607571
 40
5.000000
 50
0.000000
 72
0
  7
Normal#0.500000#3.000000
  1
19
 39
3
 62
7
  0
TEXT
  8
default
  6
CONTINUOUS
 10
262.304204
 20
110.607571
 40
5.000000
 50
0.000000
 72
0
  7
Normal#0.500000#3.000000
  1
20
 39
3
 62
7
  0
TEXT
  8
default
  6
CONTINUOUS
 10
262.304204
 20
80.607571
 40
5.000000
 50
0.000000
 72
0
  7
Normal#0.500000#3.000000
  1
20
 39
3
 62
7
  0
TEXT
  8
default
  6
CONTINUOUS
 10
262.304204
 20
50.607571
 40
5.000000
 50
0.000000
 72
0
  7
Normal#0.500000#3.000000
  1
20
 39
3
 62
7
  0
TEXT
  8
default
  6
CONTINUOUS
 10
262.304204
 20
20.607571
 40
5.000000
 50
0.000000
 72
0
  7
Normal#0.500000#3.000000
  1
20
 39
3
 62
7
  0
TEXT
  8
default
  6
CONTINUOUS
 10
262.304204
 20
-34.392429
 40
5.000000
 50
0.000000
 72
0
  7
Normal#0.500000#3.000000
  1
21
 39
3
 62
7
  0
TEXT
  8
default
  6
CONTINUOUS
 10
262.304204
 20
-64.392429
 40
5.000000
 50
0.000000
 72
0
  7
Normal#0.500000#3.000000
  1
21
 39
3
 62
7
  0
TEXT
  8
default
  6
CONTINUOUS
 10
262.304204
 20
-94.392429
 40
5.000000
 50
0.000000
 72
0
  7
Normal#0.500000#3.000000
  1
21
 39
3
 62
7
  0
TEXT
  8
default
  6
CONTINUOUS
 10
262.304204
 20
-124.392429
 40
5.000000
 50
0.000000
 72
0
  7
Normal#0.500000#3.000000
  1
21
 39
3
 62
7
  0
TEXT
  8
default
  6
CONTINUOUS
 10
262.304204
 20
-159.392429
 40
5.000000
 50
0.000000
 72
0
  7
Normal#0.500000#3.000000
  1
22
 39
3
 62
7
  0
TEXT
  8
default
  6
CONTINUOUS
 10
262.304204
 20
-189.392429
 40
5.000000
 50
0.000000
 72
0
  7
Normal#0.500000#3.000000
  1
22
 39
3
 62
7
  0
TEXT
  8
default
  6
CONTINUOUS
 10
262.304204
 20
-219.392429
 40
5.000000
 50
0.000000
 72
0
  7
Normal#0.500000#3.000000
  1
22
 39
3
 62
7
  0
TEXT
  8
default
  6
CONTINUOUS
 10
262.304204
 20
-249.392429
 40
5.000000
 50
0.000000
 72
0
  7
Normal#0.500000#3.000000
  1
22
 39
3
 62
7
  0
ENDSEC
  0
EOF
