  0
SECTION
  2
HEADER
  9
$LIMMIN
 10
0.000000
 20
0.000000
  9
$LIMMAX
 10
182.636926
 20
263.473691
  9
$EXTMIN
 10
0.000000
 20
0.000000
  9
$EXTMAX
 10
182.636926
 20
263.473691
  9
$ANGBASE
 50
0.000000
  9
$ANGDIR
 70
0
  9
$INSUNITS
 70
4
  9
$DIMALT
 70
4
  9
$DIMLUNIT
 70
2
  9
$DIMASZ
 40
2.500000
  9
$DIMTXT
 40
2.500000
  9
$DIMRND
 40
0.010000
  9
$DIMEXE
 40
1.250000
  9
$DIMEXO
 40
0.625000
  9
$DIMAUNIT
 70
0
  9
$DIMADEC
 70
2
  9
$GRIDUNIT
 10
0.001000
 20
0.001000
  9
$PLIMMIN
 10
0.000000
 20
0.000000
  9
$PLIMMAX
 10
210.000000
 20
297.000000
  9
$PSVPSCALE
 40
1.000000
  0
ENDSEC
  0
SECTION
  2
TABLES
  0
TABLE
  2
LTYPE
 70
     1
  0
LTYPE
  2
CONTINUOUS
 70
    64
  3
Ausgez
 72
    65
 73
  0
 40
0.000000
  0
ENDTAB
  0
TABLE
  2
LAYER
 70
     1
  0
LAYER
  2
default
 70
    64
 62
7
  6
CONTINUOUS
  0
LAYER
  2
bend
 70
    64
 62
7
  6
CONTINUOUS
  0
LAYER
  2
helper
 70
    64
 62
7
  6
CONTINUOUS
  0
LAYER
  2
contour
 70
    64
 62
7
  6
CONTINUOUS
  0
ENDTAB
  0
ENDSEC
  0
SECTION
  2
BLOCKS
  0
ENDSEC
  0
SECTION
  2
ENTITIES
  0
LINE
  8
bend
  6
DASH
 10
145.007841
 20
221.491426
 11
145.007841
 21
210.641189
 39
2
 62
7
  0
LINE
  8
bend
  6
DASH
 10
55.007841
 20
221.491426
 11
145.007841
 21
221.491426
 39
2
 62
7
  0
LINE
  8
bend
  6
DASH
 10
55.007841
 20
221.491426
 11
55.007841
 21
156.491426
 39
2
 62
7
  0
LINE
  8
bend
  6
DASH
 10
55.007841
 20
156.491426
 11
145.007841
 21
156.491426
 39
2
 62
7
  0
LINE
  8
bend
  6
DASH
 10
145.007841
 20
221.491426
 11
145.007841
 21
156.491426
 39
2
 62
7
  0
LINE
  8
bend
  6
DASH
 10
133.007841
 20
61.491426
 11
39.007841
 21
61.491426
 39
2
 62
7
  0
LINE
  8
bend
  6
DASH
 10
133.007841
 20
130.491426
 11
39.007841
 21
130.491426
 39
2
 62
7
  0
LINE
  8
bend
  6
DASH
 10
39.007841
 20
130.491426
 11
39.007841
 21
61.491426
 39
2
 62
7
  0
LINE
  8
bend
  6
DASH
 10
133.007841
 20
130.491426
 11
133.007841
 21
61.491426
 39
2
 62
7
  0
LINE
  8
bend
  6
DASH
 10
130.507841
 20
132.991426
 11
112.007841
 21
132.991426
 39
2
 62
7
  0
LINE
  8
bend
  6
DASH
 10
107.007841
 20
132.991426
 11
88.507841
 21
132.991426
 39
2
 62
7
  0
LINE
  8
bend
  6
DASH
 10
83.507841
 20
132.991426
 11
65.007841
 21
132.991426
 39
2
 62
7
  0
LINE
  8
bend
  6
DASH
 10
60.007841
 20
132.991426
 11
41.507841
 21
132.991426
 39
2
 62
7
  0
LINE
  8
bend
  6
DASH
 10
130.507841
 20
58.991426
 11
112.007841
 21
58.991426
 39
2
 62
7
  0
LINE
  8
bend
  6
DASH
 10
107.007841
 20
58.991426
 11
88.507841
 21
58.991426
 39
2
 62
7
  0
LINE
  8
bend
  6
DASH
 10
83.507841
 20
58.991426
 11
65.007841
 21
58.991426
 39
2
 62
7
  0
LINE
  8
bend
  6
DASH
 10
60.007841
 20
58.991426
 11
41.507841
 21
58.991426
 39
2
 62
7
  0
LINE
  8
bend
  6
DASH
 10
135.507841
 20
81.991426
 11
135.507841
 21
63.991426
 39
2
 62
7
  0
LINE
  8
bend
  6
DASH
 10
135.507841
 20
104.991426
 11
135.507841
 21
86.991426
 39
2
 62
7
  0
LINE
  8
bend
  6
DASH
 10
135.507841
 20
127.991426
 11
135.507841
 21
109.991426
 39
2
 62
7
  0
LINE
  8
bend
  6
DASH
 10
36.507841
 20
81.991426
 11
36.507841
 21
63.991426
 39
2
 62
7
  0
LINE
  8
bend
  6
DASH
 10
36.507841
 20
104.991426
 11
36.507841
 21
86.991426
 39
2
 62
7
  0
LINE
  8
bend
  6
DASH
 10
36.507841
 20
127.991426
 11
36.507841
 21
109.991426
 39
2
 62
7
  0
LINE
  8
contour
  6
CONTINUOUS
 10
54.507841
 20
221.991426
 11
54.507841
 21
242.491426
 39
3
 62
7
  0
LINE
  8
contour
  6
CONTINUOUS
 10
54.507841
 20
242.491426
 11
145.507841
 21
242.491426
 39
3
 62
7
  0
LINE
  8
contour
  6
CONTINUOUS
 10
145.507841
 20
242.491426
 11
145.507841
 21
221.991426
 39
3
 62
7
  0
LINE
  8
contour
  6
CONTINUOUS
 10
145.507841
 20
221.991426
 11
166.007841
 21
221.991426
 39
3
 62
7
  0
LINE
  8
contour
  6
CONTINUOUS
 10
166.007841
 20
155.991426
 11
145.507841
 21
155.991426
 39
3
 62
7
  0
LINE
  8
contour
  6
CONTINUOUS
 10
145.507841
 20
155.991426
 11
145.507841
 21
135.491426
 39
3
 62
7
  0
LINE
  8
contour
  6
CONTINUOUS
 10
54.507841
 20
135.491426
 11
145.507841
 21
135.491426
 39
3
 62
7
  0
LINE
  8
contour
  6
CONTINUOUS
 10
54.507841
 20
135.491426
 11
54.507841
 21
155.991426
 39
3
 62
7
  0
LINE
  8
contour
  6
CONTINUOUS
 10
54.507841
 20
155.991426
 11
34.007841
 21
155.991426
 39
3
 62
7
  0
LINE
  8
contour
  6
CONTINUOUS
 10
34.007841
 20
221.991426
 11
54.507841
 21
221.991426
 39
3
 62
7
  0
CIRCLE
  8
contour
  6
CONTINUOUS
 10
100.007841
 20
231.491426
 40
2.500000
 39
3
 62
7
  0
CIRCLE
  8
contour
  6
CONTINUOUS
 10
130.007841
 20
231.491426
 40
1.650000
 39
3
 62
7
  0
CIRCLE
  8
contour
  6
CONTINUOUS
 10
70.007841
 20
231.491426
 40
1.650000
 39
3
 62
7
  0
LINE
  8
contour
  6
CONTINUOUS
 10
129.272925
 20
186.258733
 11
125.825116
 21
186.858352
 39
3
 62
7
  0
LINE
  8
contour
  6
CONTINUOUS
 10
125.825116
 20
186.858352
 11
127.424100
 21
184.110099
 39
3
 62
7
  0
LINE
  8
contour
  6
CONTINUOUS
 10
125.966626
 20
186.747623
 11
129.992780
 21
183.994547
 39
3
 62
7
  0
LINE
  8
contour
  6
CONTINUOUS
 10
129.992780
 20
183.994547
 11
133.115795
 21
181.457097
 39
3
 62
7
  0
LINE
  8
contour
  6
CONTINUOUS
 10
133.115795
 20
181.457097
 11
134.970085
 21
179.505213
 39
3
 62
7
  0
LINE
  8
contour
  6
CONTINUOUS
 10
134.970085
 20
179.505213
 11
135.262868
 21
178.529271
 39
3
 62
7
  0
CIRCLE
  8
contour
  6
CONTINUOUS
 10
131.007841
 20
146.491426
 40
4.000000
 39
3
 62
7
  0
CIRCLE
  8
contour
  6
CONTINUOUS
 10
100.007841
 20
146.491426
 40
4.000000
 39
3
 62
7
  0
CIRCLE
  8
contour
  6
CONTINUOUS
 10
69.007841
 20
146.491426
 40
4.000000
 39
3
 62
7
  0
LINE
  8
contour
  6
CONTINUOUS
 10
34.007841
 20
221.991426
 11
34.007841
 21
155.991426
 39
3
 62
7
  0
LINE
  8
contour
  6
CONTINUOUS
 10
166.007841
 20
221.991426
 11
166.007841
 21
155.991426
 39
3
 62
7
  0
LINE
  8
contour
  6
CONTINUOUS
 10
44.007841
 20
135.491426
 11
34.007841
 21
125.491426
 39
3
 62
7
  0
LINE
  8
contour
  6
CONTINUOUS
 10
138.007841
 20
125.491426
 11
128.007841
 21
135.491426
 39
3
 62
7
  0
LINE
  8
contour
  6
CONTINUOUS
 10
138.007841
 20
66.491426
 11
128.007841
 21
56.491426
 39
3
 62
7
  0
LINE
  8
contour
  6
CONTINUOUS
 10
44.007841
 20
56.491426
 11
34.007841
 21
66.491426
 39
3
 62
7
  0
LINE
  8
contour
  6
CONTINUOUS
 10
128.007841
 20
135.491426
 11
114.507841
 21
135.491426
 39
3
 62
7
  0
LINE
  8
contour
  6
CONTINUOUS
 10
104.507841
 20
135.491426
 11
91.007841
 21
135.491426
 39
3
 62
7
  0
LINE
  8
contour
  6
CONTINUOUS
 10
81.007841
 20
135.491426
 11
67.507841
 21
135.491426
 39
3
 62
7
  0
LINE
  8
contour
  6
CONTINUOUS
 10
57.507841
 20
135.491426
 11
44.007841
 21
135.491426
 39
3
 62
7
  0
LINE
  8
contour
  6
CONTINUOUS
 10
67.507841
 20
135.491426
 11
62.507841
 21
130.491426
 39
3
 62
7
  0
LINE
  8
contour
  6
CONTINUOUS
 10
62.507841
 20
130.491426
 11
57.507841
 21
135.491426
 39
3
 62
7
  0
LINE
  8
contour
  6
CONTINUOUS
 10
86.007841
 20
130.491426
 11
81.007841
 21
135.491426
 39
3
 62
7
  0
LINE
  8
contour
  6
CONTINUOUS
 10
91.007841
 20
135.491426
 11
86.007841
 21
130.491426
 39
3
 62
7
  0
LINE
  8
contour
  6
CONTINUOUS
 10
109.507841
 20
130.491426
 11
104.507841
 21
135.491426
 39
3
 62
7
  0
LINE
  8
contour
  6
CONTINUOUS
 10
114.507841
 20
135.491426
 11
109.507841
 21
130.491426
 39
3
 62
7
  0
LINE
  8
contour
  6
CONTINUOUS
 10
128.007841
 20
56.491426
 11
114.507841
 21
56.491426
 39
3
 62
7
  0
LINE
  8
contour
  6
CONTINUOUS
 10
114.507841
 20
56.491426
 11
109.507841
 21
61.491426
 39
3
 62
7
  0
LINE
  8
contour
  6
CONTINUOUS
 10
109.507841
 20
61.491426
 11
104.507841
 21
56.491426
 39
3
 62
7
  0
LINE
  8
contour
  6
CONTINUOUS
 10
104.507841
 20
56.491426
 11
91.007841
 21
56.491426
 39
3
 62
7
  0
LINE
  8
contour
  6
CONTINUOUS
 10
91.007841
 20
56.491426
 11
86.007841
 21
61.491426
 39
3
 62
7
  0
LINE
  8
contour
  6
CONTINUOUS
 10
86.007841
 20
61.491426
 11
81.007841
 21
56.491426
 39
3
 62
7
  0
LINE
  8
contour
  6
CONTINUOUS
 10
81.007841
 20
56.491426
 11
67.507841
 21
56.491426
 39
3
 62
7
  0
LINE
  8
contour
  6
CONTINUOUS
 10
67.507841
 20
56.491426
 11
62.507841
 21
61.491426
 39
3
 62
7
  0
LINE
  8
contour
  6
CONTINUOUS
 10
57.507841
 20
56.491426
 11
44.007841
 21
56.491426
 39
3
 62
7
  0
LINE
  8
contour
  6
CONTINUOUS
 10
62.507841
 20
61.491426
 11
57.507841
 21
56.491426
 39
3
 62
7
  0
LINE
  8
contour
  6
CONTINUOUS
 10
138.007841
 20
79.491426
 11
138.007841
 21
66.491426
 39
3
 62
7
  0
LINE
  8
contour
  6
CONTINUOUS
 10
138.007841
 20
79.491426
 11
133.007841
 21
84.491426
 39
3
 62
7
  0
LINE
  8
contour
  6
CONTINUOUS
 10
138.007841
 20
89.491426
 11
133.007841
 21
84.491426
 39
3
 62
7
  0
LINE
  8
contour
  6
CONTINUOUS
 10
138.007841
 20
102.491426
 11
138.007841
 21
89.491426
 39
3
 62
7
  0
LINE
  8
contour
  6
CONTINUOUS
 10
138.007841
 20
102.491426
 11
133.007841
 21
107.491426
 39
3
 62
7
  0
LINE
  8
contour
  6
CONTINUOUS
 10
138.007841
 20
125.491426
 11
138.007841
 21
112.491426
 39
3
 62
7
  0
LINE
  8
contour
  6
CONTINUOUS
 10
138.007841
 20
112.491426
 11
133.007841
 21
107.491426
 39
3
 62
7
  0
LINE
  8
contour
  6
CONTINUOUS
 10
34.007841
 20
79.491426
 11
34.007841
 21
66.491426
 39
3
 62
7
  0
LINE
  8
contour
  6
CONTINUOUS
 10
39.007841
 20
84.491426
 11
34.007841
 21
79.491426
 39
3
 62
7
  0
LINE
  8
contour
  6
CONTINUOUS
 10
39.007841
 20
84.491426
 11
34.007841
 21
89.491426
 39
3
 62
7
  0
LINE
  8
contour
  6
CONTINUOUS
 10
34.007841
 20
102.491426
 11
34.007841
 21
89.491426
 39
3
 62
7
  0
LINE
  8
contour
  6
CONTINUOUS
 10
39.007841
 20
107.491426
 11
34.007841
 21
102.491426
 39
3
 62
7
  0
LINE
  8
contour
  6
CONTINUOUS
 10
34.007841
 20
125.491426
 11
34.007841
 21
112.491426
 39
3
 62
7
  0
LINE
  8
contour
  6
CONTINUOUS
 10
39.007841
 20
107.491426
 11
34.007841
 21
112.491426
 39
3
 62
7
  0
LINE
  8
contour
  6
CONTINUOUS
 10
34.007841
 20
56.491426
 11
126.007841
 21
56.491426
 39
3
 62
7
  0
LINE
  8
contour
  6
CONTINUOUS
 10
126.007841
 20
56.491426
 11
126.007841
 21
34.491426
 39
3
 62
7
  0
LINE
  8
contour
  6
CONTINUOUS
 10
69.007841
 20
34.491426
 11
69.007841
 21
39.491426
 39
3
 62
7
  0
LINE
  8
contour
  6
CONTINUOUS
 10
69.007841
 20
39.491426
 11
59.007841
 21
39.491426
 39
3
 62
7
  0
LINE
  8
contour
  6
CONTINUOUS
 10
59.007841
 20
39.491426
 11
59.007841
 21
34.491426
 39
3
 62
7
  0
LINE
  8
contour
  6
CONTINUOUS
 10
116.007841
 20
34.491426
 11
116.007841
 21
39.491426
 39
3
 62
7
  0
LINE
  8
contour
  6
CONTINUOUS
 10
116.007841
 20
39.491426
 11
111.007841
 21
39.491426
 39
3
 62
7
  0
LINE
  8
contour
  6
CONTINUOUS
 10
111.007841
 20
39.491426
 11
111.007841
 21
34.491426
 39
3
 62
7
  0
LINE
  8
contour
  6
CONTINUOUS
 10
34.007841
 20
56.491426
 11
34.007841
 21
34.491426
 39
3
 62
7
  0
LINE
  8
contour
  6
CONTINUOUS
 10
34.007841
 20
34.491426
 11
59.007841
 21
34.491426
 39
3
 62
7
  0
LINE
  8
contour
  6
CONTINUOUS
 10
69.007841
 20
34.491426
 11
111.007841
 21
34.491426
 39
3
 62
7
  0
LINE
  8
contour
  6
CONTINUOUS
 10
116.007841
 20
34.491426
 11
126.007841
 21
34.491426
 39
3
 62
7
  0
LINE
  8
contour
  6
CONTINUOUS
 10
138.007841
 20
43.491426
 11
138.007841
 21
135.491426
 39
3
 62
7
  0
LINE
  8
contour
  6
CONTINUOUS
 10
138.007841
 20
135.491426
 11
160.007841
 21
135.491426
 39
3
 62
7
  0
LINE
  8
contour
  6
CONTINUOUS
 10
160.007841
 20
43.491426
 11
138.007841
 21
43.491426
 39
3
 62
7
  0
LINE
  8
contour
  6
CONTINUOUS
 10
160.007841
 20
63.491426
 11
150.007841
 21
63.491426
 39
3
 62
7
  0
LINE
  8
contour
  6
CONTINUOUS
 10
150.007841
 20
63.491426
 11
150.007841
 21
78.491426
 39
3
 62
7
  0
LINE
  8
contour
  6
CONTINUOUS
 10
150.007841
 20
78.491426
 11
160.007841
 21
78.491426
 39
3
 62
7
  0
LINE
  8
contour
  6
CONTINUOUS
 10
160.007841
 20
135.491426
 11
160.007841
 21
115.491426
 39
3
 62
7
  0
LINE
  8
contour
  6
CONTINUOUS
 10
160.007841
 20
115.491426
 11
155.007841
 21
115.491426
 39
3
 62
7
  0
LINE
  8
contour
  6
CONTINUOUS
 10
155.007841
 20
115.491426
 11
155.007841
 21
110.491426
 39
3
 62
7
  0
LINE
  8
contour
  6
CONTINUOUS
 10
155.007841
 20
110.491426
 11
160.007841
 21
110.491426
 39
3
 62
7
  0
LINE
  8
contour
  6
CONTINUOUS
 10
138.007841
 20
43.491426
 11
138.007841
 21
68.491426
 39
3
 62
7
  0
LINE
  8
contour
  6
CONTINUOUS
 10
138.007841
 20
135.491426
 11
138.007841
 21
125.491426
 39
3
 62
7
  0
LINE
  8
contour
  6
CONTINUOUS
 10
138.007841
 20
78.491426
 11
138.007841
 21
120.491426
 39
3
 62
7
  0
LINE
  8
contour
  6
CONTINUOUS
 10
160.007841
 20
43.491426
 11
160.007841
 21
63.491426
 39
3
 62
7
  0
LINE
  8
contour
  6
CONTINUOUS
 10
160.007841
 20
78.491426
 11
160.007841
 21
110.491426
 39
3
 62
7
  0
TEXT
  8
default
  6
CONTINUOUS
 10
60.255634
 20
234.494730
 40
5.000000
 50
0.000000
 72
0
  7
Normal#0.500000#3.000000
  1
3.3
 39
3
 62
7
  0
TEXT
  8
default
  6
CONTINUOUS
 10
121.679186
 20
235.053126
 40
5.000000
 50
0.000000
 72
0
  7
Normal#0.500000#3.000000
  1
3.3
 39
3
 62
7
  0
TEXT
  8
default
  6
CONTINUOUS
 10
92.084202
 20
235.332324
 40
5.000000
 50
0.000000
 72
0
  7
Normal#0.500000#3.000000
  1
5.0
 39
3
 62
7
  0
TEXT
  8
default
  6
CONTINUOUS
 10
58.859644
 20
148.780955
 40
5.000000
 50
0.000000
 72
0
  7
Normal#0.500000#3.000000
  1
8.0
 39
3
 62
7
  0
TEXT
  8
default
  6
CONTINUOUS
 10
90.409014
 20
148.501757
 40
5.000000
 50
0.000000
 72
0
  7
Normal#0.500000#3.000000
  1
8.0
 39
3
 62
7
  0
TEXT
  8
default
  6
CONTINUOUS
 10
121.120790
 20
149.618549
 40
5.000000
 50
0.000000
 72
0
  7
Normal#0.500000#3.000000
  1
8.0
 39
3
 62
7
  0
TEXT
  8
default
  6
CONTINUOUS
 10
80.102307
 20
49.734642
 40
4.000000
 50
0.000000
 72
1
  7
Courier#0.800000#2.400000
  1
Q101 partition
 39
3
 62
7
  0
TEXT
  8
default
  6
CONTINUOUS
 10
147.086201
 20
92.662164
 40
4.000000
 50
90.000000
 72
1
  7
Courier#0.800000#2.400000
  1
NE592 partition
 39
3
 62
7
  0
TEXT
  8
default
  6
CONTINUOUS
 10
136.214412
 20
172.063653
 40
3.000000
 50
270.000000
 72
1
  7
Courier#0.600000#1.800000
  1
Bump
 39
3
 62
7
  0
TEXT
  8
default
  6
CONTINUOUS
 10
132.014412
 20
172.063653
 40
3.000000
 50
270.000000
 72
1
  7
Courier#0.600000#1.800000
  1
these
 39
3
 62
7
  0
TEXT
  8
default
  6
CONTINUOUS
 10
127.814412
 20
172.063653
 40
3.000000
 50
270.000000
 72
1
  7
Courier#0.600000#1.800000
  1
points
 39
3
 62
7
  0
TEXT
  8
default
  6
CONTINUOUS
 10
102.548037
 20
255.473691
 40
8.000000
 50
0.000000
 72
1
  7
Courier#1.600000#4.800000
  1
RX box & lid template
 39
3
 62
7
  0
LINE
  8
helper
  6
CONTINUOUS
 10
145.007841
 20
214.491426
 11
166.007841
 21
214.491426
 39
1
 62
7
  0
LINE
  8
helper
  6
CONTINUOUS
 10
34.007841
 20
214.491426
 11
55.007841
 21
214.491426
 39
1
 62
7
  0
LINE
  8
helper
  6
CONTINUOUS
 10
145.007841
 20
163.491426
 11
166.007841
 21
163.491426
 39
1
 62
7
  0
LINE
  8
helper
  6
CONTINUOUS
 10
34.007841
 20
163.491426
 11
55.007841
 21
163.491426
 39
1
 62
7
  0
LINE
  8
helper
  6
CONTINUOUS
 10
70.007841
 20
242.491426
 11
70.007841
 21
221.491426
 39
1
 62
7
  0
LINE
  8
helper
  6
CONTINUOUS
 10
130.007841
 20
242.491426
 11
130.007841
 21
221.491426
 39
1
 62
7
  0
LINE
  8
helper
  6
CONTINUOUS
 10
55.007841
 20
205.491426
 11
145.007841
 21
205.491426
 39
1
 62
7
  0
LINE
  8
helper
  6
CONTINUOUS
 10
55.007841
 20
187.491426
 11
145.007841
 21
187.491426
 39
1
 62
7
  0
LINE
  8
helper
  6
CONTINUOUS
 10
90.007841
 20
210.491426
 11
90.007841
 21
200.491426
 39
1
 62
7
  0
LINE
  8
helper
  6
CONTINUOUS
 10
80.007841
 20
210.491426
 11
80.007841
 21
200.491426
 39
1
 62
7
  0
LINE
  8
helper
  6
CONTINUOUS
 10
130.007841
 20
210.491426
 11
130.007841
 21
200.491426
 39
1
 62
7
  0
LINE
  8
helper
  6
CONTINUOUS
 10
135.007841
 20
210.491426
 11
135.007841
 21
200.491426
 39
1
 62
7
  0
LINE
  8
helper
  6
CONTINUOUS
 10
75.007841
 20
192.491426
 11
75.007841
 21
182.491426
 39
1
 62
7
  0
LINE
  8
helper
  6
CONTINUOUS
 10
90.007841
 20
192.491426
 11
90.007841
 21
182.491426
 39
1
 62
7
  0
LINE
  8
helper
  6
CONTINUOUS
 10
120.007841
 20
192.491426
 11
120.007841
 21
182.491426
 39
1
 62
7
  0
LINE
  8
helper
  6
CONTINUOUS
 10
125.007841
 20
192.491426
 11
125.007841
 21
182.491426
 39
1
 62
7
  0
LINE
  8
helper
  6
CONTINUOUS
 10
100.007841
 20
242.491426
 11
100.007841
 21
221.491426
 39
1
 62
7
  0
LINE
  8
helper
  6
CONTINUOUS
 10
100.007841
 20
156.491426
 11
100.007841
 21
135.491426
 39
1
 62
7
  0
LINE
  8
helper
  6
CONTINUOUS
 10
131.007841
 20
156.491426
 11
131.007841
 21
135.491426
 39
1
 62
7
  0
LINE
  8
helper
  6
CONTINUOUS
 10
69.007841
 20
156.491426
 11
69.007841
 21
135.491426
 39
1
 62
7
  0
LINE
  8
helper
  6
CONTINUOUS
 10
155.007841
 20
221.991426
 11
155.007841
 21
155.991426
 39
1
 62
7
  0
LINE
  8
helper
  6
CONTINUOUS
 10
54.507841
 20
231.491426
 11
145.507841
 21
231.491426
 39
1
 62
7
  0
LINE
  8
helper
  6
CONTINUOUS
 10
54.507841
 20
146.491426
 11
145.507841
 21
146.491426
 39
1
 62
7
  0
LINE
  8
helper
  6
CONTINUOUS
 10
45.007841
 20
221.991426
 11
45.007841
 21
155.991426
 39
1
 62
7
  0
CIRCLE
  8
contour
  6
CONTINUOUS
 10
45.007841
 20
214.491426
 40
2.000000
 39
3
 62
7
  0
CIRCLE
  8
contour
  6
CONTINUOUS
 10
45.007841
 20
163.491426
 40
2.000000
 39
3
 62
7
  0
CIRCLE
  8
contour
  6
CONTINUOUS
 10
155.007841
 20
163.491426
 40
2.000000
 39
3
 62
7
  0
CIRCLE
  8
contour
  6
CONTINUOUS
 10
155.007841
 20
214.491426
 40
2.000000
 39
3
 62
7
  0
TEXT
  8
contour
  6
CONTINUOUS
 10
38.770060
 20
204.520958
 40
7.000000
 50
0.000000
 72
0
  7
Normal#0.700000#4.200000
  1
4
 39
3
 62
7
  0
TEXT
  8
contour
  6
CONTINUOUS
 10
39.837126
 20
166.462275
 40
7.000000
 50
0.000000
 72
0
  7
Normal#0.700000#4.200000
  1
4
 39
3
 62
7
  0
TEXT
  8
contour
  6
CONTINUOUS
 10
157.570060
 20
167.173653
 40
7.000000
 50
0.000000
 72
0
  7
Normal#0.700000#4.200000
  1
4
 39
3
 62
7
  0
TEXT
  8
contour
  6
CONTINUOUS
 10
157.570060
 20
204.876647
 40
7.000000
 50
0.000000
 72
0
  7
Normal#0.700000#4.200000
  1
4
 39
3
 62
7
  0
ENDSEC
  0
EOF
