  0
SECTION
  2
HEADER
  9
$LIMMIN
 10
0.000000
 20
0.000000
  9
$LIMMAX
 10
183.319809
 20
255.009887
  9
$EXTMIN
 10
0.000000
 20
0.000000
  9
$EXTMAX
 10
183.319809
 20
255.009887
  9
$ANGBASE
 50
0.000000
  9
$ANGDIR
 70
0
  9
$INSUNITS
 70
4
  9
$DIMALT
 70
4
  9
$DIMLUNIT
 70
2
  9
$DIMASZ
 40
3.000000
  9
$DIMTXT
 40
5.000000
  9
$DIMRND
 40
0.010000
  9
$DIMEXE
 40
2.000000
  9
$DIMEXO
 40
2.000000
  9
$DIMAUNIT
 70
0
  9
$DIMADEC
 70
2
  9
$GRIDUNIT
 10
0.001000
 20
0.001000
  9
$PLIMMIN
 10
0.000000
 20
0.000000
  9
$PLIMMAX
 10
210.000000
 20
297.000000
  9
$PSVPSCALE
 40
1.000000
  0
ENDSEC
  0
SECTION
  2
TABLES
  0
TABLE
  2
LTYPE
 70
     1
  0
LTYPE
  2
CONTINUOUS
 70
    64
  3
Ausgez
 72
    65
 73
  0
 40
0.000000
  0
ENDTAB
  0
TABLE
  2
LAYER
 70
     1
  0
LAYER
  2
contour
 70
    64
 62
7
  6
CONTINUOUS
  0
ENDTAB
  0
ENDSEC
  0
SECTION
  2
BLOCKS
  0
ENDSEC
  0
SECTION
  2
ENTITIES
  0
LINE
  8
contour
  6
CONTINUOUS
 10
53.319809
 20
130.009887
 11
158.319809
 21
130.009887
 39
3
 62
7
  0
LINE
  8
contour
  6
CONTINUOUS
 10
183.319809
 20
230.009887
 11
183.319809
 21
155.009887
 39
3
 62
7
  0
LINE
  8
contour
  6
CONTINUOUS
 10
28.319809
 20
230.009887
 11
183.319809
 21
230.009887
 39
3
 62
7
  0
LINE
  8
contour
  6
CONTINUOUS
 10
28.319809
 20
155.009887
 11
183.319809
 21
155.009887
 39
3
 62
7
  0
LINE
  8
contour
  6
CONTINUOUS
 10
53.319809
 20
255.009887
 11
53.319809
 21
130.009887
 39
3
 62
7
  0
LINE
  8
contour
  6
CONTINUOUS
 10
53.319809
 20
255.009887
 11
158.319809
 21
255.009887
 39
3
 62
7
  0
LINE
  8
contour
  6
CONTINUOUS
 10
158.319809
 20
255.009887
 11
158.319809
 21
130.009887
 39
3
 62
7
  0
LINE
  8
contour
  6
CONTINUOUS
 10
43.819809
 20
195.509887
 11
43.819809
 21
189.509887
 39
3
 62
7
  0
LINE
  8
contour
  6
CONTINUOUS
 10
28.319809
 20
189.509887
 11
43.819809
 21
189.509887
 39
3
 62
7
  0
LINE
  8
contour
  6
CONTINUOUS
 10
28.319809
 20
189.509887
 11
28.319809
 21
155.009887
 39
3
 62
7
  0
LINE
  8
contour
  6
CONTINUOUS
 10
28.319809
 20
230.009887
 11
28.319809
 21
195.509887
 39
3
 62
7
  0
LINE
  8
contour
  6
CONTINUOUS
 10
28.319809
 20
195.509887
 11
43.819809
 21
195.509887
 39
3
 62
7
  0
LINE
  8
contour
  6
CONTINUOUS
 10
68.319809
 20
130.009887
 11
58.319809
 21
120.009887
 39
3
 62
7
  0
LINE
  8
contour
  6
CONTINUOUS
 10
68.319809
 20
55.009887
 11
58.319809
 21
65.009887
 39
3
 62
7
  0
LINE
  8
contour
  6
CONTINUOUS
 10
93.319809
 20
55.009887
 11
83.319809
 21
65.009887
 39
3
 62
7
  0
LINE
  8
contour
  6
CONTINUOUS
 10
93.319809
 20
130.009887
 11
83.319809
 21
120.009887
 39
3
 62
7
  0
LINE
  8
contour
  6
CONTINUOUS
 10
68.319809
 20
55.009887
 11
83.319809
 21
55.009887
 39
3
 62
7
  0
LINE
  8
contour
  6
CONTINUOUS
 10
83.319809
 20
99.509887
 11
90.319809
 21
92.509887
 39
3
 62
7
  0
LINE
  8
contour
  6
CONTINUOUS
 10
83.319809
 20
85.509887
 11
90.319809
 21
92.509887
 39
3
 62
7
  0
LINE
  8
contour
  6
CONTINUOUS
 10
58.319809
 20
102.509887
 11
68.319809
 21
92.509887
 39
3
 62
7
  0
LINE
  8
contour
  6
CONTINUOUS
 10
58.319809
 20
120.009887
 11
58.319809
 21
102.509887
 39
3
 62
7
  0
LINE
  8
contour
  6
CONTINUOUS
 10
58.319809
 20
82.509887
 11
68.319809
 21
92.509887
 39
3
 62
7
  0
LINE
  8
contour
  6
CONTINUOUS
 10
58.319809
 20
82.509887
 11
58.319809
 21
65.009887
 39
3
 62
7
  0
LINE
  8
contour
  6
CONTINUOUS
 10
68.319809
 20
130.009887
 11
83.319809
 21
130.009887
 39
3
 62
7
  0
LINE
  8
contour
  6
CONTINUOUS
 10
83.319809
 20
130.009887
 11
83.319809
 21
55.009887
 39
3
 62
7
  0
LINE
  8
contour
  6
CONTINUOUS
 10
93.319809
 20
130.009887
 11
108.319809
 21
130.009887
 39
3
 62
7
  0
LINE
  8
contour
  6
CONTINUOUS
 10
93.319809
 20
55.009887
 11
108.319809
 21
55.009887
 39
3
 62
7
  0
LINE
  8
contour
  6
CONTINUOUS
 10
108.319809
 20
130.009887
 11
108.319809
 21
55.009887
 39
3
 62
7
  0
LINE
  8
contour
  6
CONTINUOUS
 10
158.319809
 20
130.009887
 11
158.319809
 21
55.009887
 39
3
 62
7
  0
LINE
  8
contour
  6
CONTINUOUS
 10
118.319809
 20
55.009887
 11
108.319809
 21
65.009887
 39
3
 62
7
  0
LINE
  8
contour
  6
CONTINUOUS
 10
143.319809
 20
130.009887
 11
133.319809
 21
120.009887
 39
3
 62
7
  0
LINE
  8
contour
  6
CONTINUOUS
 10
143.319809
 20
130.009887
 11
158.319809
 21
130.009887
 39
3
 62
7
  0
LINE
  8
contour
  6
CONTINUOUS
 10
143.319809
 20
55.009887
 11
133.319809
 21
65.009887
 39
3
 62
7
  0
LINE
  8
contour
  6
CONTINUOUS
 10
143.319809
 20
55.009887
 11
158.319809
 21
55.009887
 39
3
 62
7
  0
LINE
  8
contour
  6
CONTINUOUS
 10
118.319809
 20
55.009887
 11
133.319809
 21
55.009887
 39
3
 62
7
  0
LINE
  8
contour
  6
CONTINUOUS
 10
108.319809
 20
99.509887
 11
115.319809
 21
92.509887
 39
3
 62
7
  0
LINE
  8
contour
  6
CONTINUOUS
 10
108.319809
 20
85.509887
 11
115.319809
 21
92.509887
 39
3
 62
7
  0
LINE
  8
contour
  6
CONTINUOUS
 10
140.319809
 20
92.509887
 11
133.319809
 21
99.509887
 39
3
 62
7
  0
LINE
  8
contour
  6
CONTINUOUS
 10
140.319809
 20
92.509887
 11
133.319809
 21
85.509887
 39
3
 62
7
  0
LINE
  8
contour
  6
CONTINUOUS
 10
118.319809
 20
130.009887
 11
133.319809
 21
130.009887
 39
3
 62
7
  0
LINE
  8
contour
  6
CONTINUOUS
 10
133.319809
 20
130.009887
 11
133.319809
 21
55.009887
 39
3
 62
7
  0
LINE
  8
contour
  6
CONTINUOUS
 10
118.319809
 20
130.009887
 11
108.319809
 21
120.009887
 39
3
 62
7
  0
ENDSEC
  0
EOF
