999
dxflib 2.0.4.0
  0
SECTION
  2
HEADER
  9
$ACADVER
  1
AC1015
  9
$HANDSEED
  5
FFFF
  9
$DIMASZ
 40
2.5
  9
$GRIDUNIT
 10
0.001
 20
20.0
  9
$DIMADEC
 70
2
  9
$DIMGAP
 40
0.625
  9
$DIMALT
 70
4
  9
$SPLINESEGS
 70
8
  9
$AUPREC
 70
2
  9
$LUNITS
 70
2
  9
$DIMRND
 40
0.01
  9
$DIMEXO
 40
0.625
  9
$INSUNITS
 70
4
  9
$DIMLUNIT
 70
2
  9
$DIMTXT
 40
2.5
  9
$GRIDMODE
 70
1
  9
$LUPREC
 70
4
  9
$PSVPSCALE
 40
1.0
  9
$DIMSTYLE
  2
Standard
  9
$PLIMMAX
 10
210.0
 20
297.0
  9
$PLIMMIN
 10
0.0
 20
0.0
  9
$PINSBASE
 10
-49.0590099009901053
 20
-31.0412673267326653
 30
0.0
  9
$DIMEXE
 40
1.25
  9
$DIMAUNIT
 70
0
  9
$AUNITS
 70
0
  0
ENDSEC
  0
SECTION
  2
TABLES
  0
TABLE
  2
VPORT
  5
8
100
AcDbSymbolTable
 70
1
  0
VPORT
  5
30
100
AcDbSymbolTableRecord
100
AcDbViewportTableRecord
  2
*Active
 70
0
 10
0.0
 20
0.0
 11
1.0
 21
1.0
 12
286.3055555555554861
 22
148.5
 13
0.0
 23
0.0
 14
10.0
 24
10.0
 15
10.0
 25
10.0
 16
0.0
 26
0.0
 36
1.0
 17
0.0
 27
0.0
 37
0.0
 40
297.0
 41
1.92798353909465
 42
50.0
 43
0.0
 44
0.0
 50
0.0
 51
0.0
 71
0
 72
100
 73
1
 74
3
 75
1
 76
1
 77
0
 78
0
281
0
 65
1
110
0.0
120
0.0
130
0.0
111
1.0
121
0.0
131
0.0
112
0.0
122
1.0
132
0.0
 79
0
146
0.0
  0
ENDTAB
  0
TABLE
  2
LTYPE
  5
5
100
AcDbSymbolTable
 70
21
  0
LTYPE
  5
14
100
AcDbSymbolTableRecord
100
AcDbLinetypeTableRecord
  2
ByBlock
 70
0
  3

 72
65
 73
0
 40
0.0
  0
LTYPE
  5
15
100
AcDbSymbolTableRecord
100
AcDbLinetypeTableRecord
  2
ByLayer
 70
0
  3

 72
65
 73
0
 40
0.0
  0
LTYPE
  5
16
100
AcDbSymbolTableRecord
100
AcDbLinetypeTableRecord
  2
CONTINUOUS
 70
0
  3
Solid line
 72
65
 73
0
 40
0.0
  0
LTYPE
  5
31
100
AcDbSymbolTableRecord
100
AcDbLinetypeTableRecord
  2
DOT
 70
0
  3
Dot . . . . . . . . . . . . . . . . . . . . . .
 72
65
 73
2
 40
6.3499999999999996
 49
0.0
 74
0
 49
-6.3499999999999996
 74
0
  0
LTYPE
  5
32
100
AcDbSymbolTableRecord
100
AcDbLinetypeTableRecord
  2
DOT2
 70
0
  3
Dot (.5x) .....................................
 72
65
 73
2
 40
3.1749999999999998
 49
0.0
 74
0
 49
-3.1749999999999998
 74
0
  0
LTYPE
  5
33
100
AcDbSymbolTableRecord
100
AcDbLinetypeTableRecord
  2
DOTX2
 70
0
  3
Dot (2x) .  .  .  .  .  .  .  .  .  .  .  .  .
 72
65
 73
2
 40
12.6999999999999993
 49
0.0
 74
0
 49
-12.6999999999999993
 74
0
  0
LTYPE
  5
34
100
AcDbSymbolTableRecord
100
AcDbLinetypeTableRecord
  2
DASHED
 70
0
  3
Dashed __ __ __ __ __ __ __ __ __ __ __ __ __ _
 72
65
 73
2
 40
19.0500000000000007
 49
12.6999999999999993
 74
0
 49
-6.3499999999999996
 74
0
  0
LTYPE
  5
35
100
AcDbSymbolTableRecord
100
AcDbLinetypeTableRecord
  2
DASHED2
 70
0
  3
Dashed (.5x) _ _ _ _ _ _ _ _ _ _ _ _ _ _ _ _ _
 72
65
 73
2
 40
9.5250000000000004
 49
6.3499999999999996
 74
0
 49
-3.1749999999999998
 74
0
  0
LTYPE
  5
36
100
AcDbSymbolTableRecord
100
AcDbLinetypeTableRecord
  2
DASHEDX2
 70
0
  3
Dashed (2x) ____  ____  ____  ____  ____  ___
 72
65
 73
2
 40
38.1000000000000014
 49
25.3999999999999986
 74
0
 49
-12.6999999999999993
 74
0
  0
LTYPE
  5
37
100
AcDbSymbolTableRecord
100
AcDbLinetypeTableRecord
  2
DASHDOT
 70
0
  3
Dash dot __ . __ . __ . __ . __ . __ . __ . __
 72
65
 73
4
 40
25.3999999999999986
 49
12.6999999999999993
 74
0
 49
-6.3499999999999996
 74
0
 49
0.0
 74
0
 49
-6.3499999999999996
 74
0
  0
LTYPE
  5
38
100
AcDbSymbolTableRecord
100
AcDbLinetypeTableRecord
  2
DASHDOT2
 70
0
  3
Dash dot (.5x) _._._._._._._._._._._._._._._.
 72
65
 73
4
 40
12.6999999999999993
 49
6.3499999999999996
 74
0
 49
-3.1749999999999998
 74
0
 49
0.0
 74
0
 49
-3.1749999999999998
 74
0
  0
LTYPE
  5
39
100
AcDbSymbolTableRecord
100
AcDbLinetypeTableRecord
  2
DASHDOTX2
 70
0
  3
Dash dot (2x) ____  .  ____  .  ____  .  ___
 72
65
 73
4
 40
50.7999999999999972
 49
25.3999999999999986
 74
0
 49
-12.6999999999999993
 74
0
 49
0.0
 74
0
 49
-12.6999999999999993
 74
0
  0
LTYPE
  5
3A
100
AcDbSymbolTableRecord
100
AcDbLinetypeTableRecord
  2
DIVIDE
 70
0
  3
Divide ____ . . ____ . . ____ . . ____ . . ____
 72
65
 73
6
 40
31.75
 49
12.6999999999999993
 74
0
 49
-6.3499999999999996
 74
0
 49
0.0
 74
0
 49
-6.3499999999999996
 74
0
 49
0.0
 74
0
 49
-6.3499999999999996
 74
0
  0
LTYPE
  5
3B
100
AcDbSymbolTableRecord
100
AcDbLinetypeTableRecord
  2
DIVIDE2
 70
0
  3
Divide (.5x) __..__..__..__..__..__..__..__.._
 72
65
 73
6
 40
15.875
 49
6.3499999999999996
 74
0
 49
-3.1749999999999998
 74
0
 49
0.0
 74
0
 49
-3.1749999999999998
 74
0
 49
0.0
 74
0
 49
-3.1749999999999998
 74
0
  0
LTYPE
  5
3C
100
AcDbSymbolTableRecord
100
AcDbLinetypeTableRecord
  2
DIVIDEX2
 70
0
  3
Divide (2x) ________  .  .  ________  .  .  _
 72
65
 73
6
 40
63.5
 49
25.3999999999999986
 74
0
 49
-12.6999999999999993
 74
0
 49
0.0
 74
0
 49
-12.6999999999999993
 74
0
 49
0.0
 74
0
 49
-12.6999999999999993
 74
0
  0
LTYPE
  5
3D
100
AcDbSymbolTableRecord
100
AcDbLinetypeTableRecord
  2
CENTER
 70
0
  3
Center ____ _ ____ _ ____ _ ____ _ ____ _ ____
 72
65
 73
4
 40
50.7999999999999972
 49
31.75
 74
0
 49
-6.3499999999999996
 74
0
 49
6.3499999999999996
 74
0
 49
-6.3499999999999996
 74
0
  0
LTYPE
  5
3E
100
AcDbSymbolTableRecord
100
AcDbLinetypeTableRecord
  2
CENTER2
 70
0
  3
Center (.5x) ___ _ ___ _ ___ _ ___ _ ___ _ ___
 72
65
 73
4
 40
28.5749999999999993
 49
19.0500000000000007
 74
0
 49
-3.1749999999999998
 74
0
 49
3.1749999999999998
 74
0
 49
-3.1749999999999998
 74
0
  0
LTYPE
  5
3F
100
AcDbSymbolTableRecord
100
AcDbLinetypeTableRecord
  2
CENTERX2
 70
0
  3
Center (2x) ________  __  ________  __  _____
 72
65
 73
4
 40
101.5999999999999943
 49
63.5
 74
0
 49
-12.6999999999999993
 74
0
 49
12.6999999999999993
 74
0
 49
-12.6999999999999993
 74
0
  0
LTYPE
  5
40
100
AcDbSymbolTableRecord
100
AcDbLinetypeTableRecord
  2
BORDER
 70
0
  3
Border __ __ . __ __ . __ __ . __ __ . __ __ .
 72
65
 73
6
 40
44.4500000000000028
 49
12.6999999999999993
 74
0
 49
-6.3499999999999996
 74
0
 49
12.6999999999999993
 74
0
 49
-6.3499999999999996
 74
0
 49
0.0
 74
0
 49
-6.3499999999999996
 74
0
  0
LTYPE
  5
41
100
AcDbSymbolTableRecord
100
AcDbLinetypeTableRecord
  2
BORDER2
 70
0
  3
Border (.5x) __.__.__.__.__.__.__.__.__.__.__.
 72
65
 73
6
 40
22.2250000000000014
 49
6.3499999999999996
 74
0
 49
-3.1749999999999998
 74
0
 49
6.3499999999999996
 74
0
 49
-3.1749999999999998
 74
0
 49
0.0
 74
0
 49
-3.1749999999999998
 74
0
  0
LTYPE
  5
42
100
AcDbSymbolTableRecord
100
AcDbLinetypeTableRecord
  2
BORDERX2
 70
0
  3
Border (2x) ____  ____  .  ____  ____  .  ___
 72
65
 73
6
 40
88.9000000000000057
 49
25.3999999999999986
 74
0
 49
-12.6999999999999993
 74
0
 49
25.3999999999999986
 74
0
 49
-12.6999999999999993
 74
0
 49
0.0
 74
0
 49
-12.6999999999999993
 74
0
  0
ENDTAB
  0
TABLE
  2
LAYER
  5
2
100
AcDbSymbolTable
 70
8
  0
LAYER
  5
10
100
AcDbSymbolTableRecord
100
AcDbLayerTableRecord
  2
0
 70
0
 62
7
  6
CONTINUOUS
390
F
  0
LAYER
  5
43
100
AcDbSymbolTableRecord
100
AcDbLayerTableRecord
  2
text
 70
0
 62
7
  6
CONTINUOUS
390
F
  0
LAYER
  5
44
100
AcDbSymbolTableRecord
100
AcDbLayerTableRecord
  2
dimensions
 70
0
 62
7
  6
CONTINUOUS
390
F
  0
LAYER
  5
45
100
AcDbSymbolTableRecord
100
AcDbLayerTableRecord
  2
axes
 70
0
 62
7
  6
DASHDOT
390
F
  0
LAYER
  5
46
100
AcDbSymbolTableRecord
100
AcDbLayerTableRecord
  2
contour
 70
0
 62
7
  6
CONTINUOUS
370
50
390
F
  0
LAYER
  5
47
100
AcDbSymbolTableRecord
100
AcDbLayerTableRecord
  2
separator
 70
0
 62
7
  6
CONTINUOUS
390
F
  0
LAYER
  5
48
100
AcDbSymbolTableRecord
100
AcDbLayerTableRecord
  2
helper
 70
0
 62
7
  6
CONTINUOUS
370
25
390
F
  0
LAYER
  5
49
100
AcDbSymbolTableRecord
100
AcDbLayerTableRecord
  2
bend
 70
0
 62
7
  6
DASHED
370
35
390
F
  0
ENDTAB
  0
TABLE
  2
STYLE
  5
3
100
AcDbSymbolTable
 70
1
  0
STYLE
  5
11
100
AcDbSymbolTableRecord
100
AcDbTextStyleTableRecord
  2
Standard
 70
0
 40
0.0
 41
1.0
 50
0.0
 71
0
 42
2.5
  3
txt
  4

  0
ENDTAB
  0
TABLE
  2
VIEW
  5
6
100
AcDbSymbolTable
 70
0
  0
ENDTAB
  0
TABLE
  2
UCS
  5
7
100
AcDbSymbolTable
 70
0
  0
ENDTAB
  0
TABLE
  2
APPID
  5
9
100
AcDbSymbolTable
 70
1
  0
APPID
  5
12
100
AcDbSymbolTableRecord
100
AcDbRegAppTableRecord
  2
ACAD
 70
0
  0
ENDTAB
  0
TABLE
  2
DIMSTYLE
  5
A
100
AcDbSymbolTable
 70
1
100
AcDbDimStyleTable
 71
0
  0
DIMSTYLE
105
27
100
AcDbSymbolTableRecord
100
AcDbDimStyleTableRecord
  2
Standard
 41
2.5
 42
0.625
 43
3.75
 44
1.25
 70
0
 73
0
 74
0
 77
1
 78
8
140
2.5
141
2.5
143
0.03937007874016
147
0.625
171
3
172
1
271
2
272
2
274
3
278
44
283
0
284
8
340
11
  0
ENDTAB
  0
TABLE
  2
BLOCK_RECORD
  5
1
100
AcDbSymbolTable
 70
1
  0
BLOCK_RECORD
  5
1F
100
AcDbSymbolTableRecord
100
AcDbBlockTableRecord
  2
*Model_Space
340
22
  0
BLOCK_RECORD
  5
1B
100
AcDbSymbolTableRecord
100
AcDbBlockTableRecord
  2
*Paper_Space
340
1E
  0
BLOCK_RECORD
  5
23
100
AcDbSymbolTableRecord
100
AcDbBlockTableRecord
  2
*Paper_Space0
340
26
  0
ENDTAB
  0
ENDSEC
  0
SECTION
  2
BLOCKS
  0
BLOCK
  5
20
100
AcDbEntity
  8
0
100
AcDbBlockBegin
  2
*Model_Space
 70
0
 10
0.0
 20
0.0
 30
0.0
  3
*Model_Space
  1

  0
ENDBLK
  5
21
100
AcDbEntity
  8
0
100
AcDbBlockEnd
  0
BLOCK
  5
1C
100
AcDbEntity
 67
1
  8
0
100
AcDbBlockBegin
  2
*Paper_Space
 70
0
 10
0.0
 20
0.0
 30
0.0
  3
*Paper_Space
  1

  0
ENDBLK
  5
1D
100
AcDbEntity
 67
1
  8
0
100
AcDbBlockEnd
  0
BLOCK
  5
24
100
AcDbEntity
  8
0
100
AcDbBlockBegin
  2
*Paper_Space0
 70
0
 10
0.0
 20
0.0
 30
0.0
  3
*Paper_Space0
  1

  0
ENDBLK
  5
25
100
AcDbEntity
  8
0
100
AcDbBlockEnd
  0
ENDSEC
  0
SECTION
  2
ENTITIES
  0
LINE
  5
4A
100
AcDbEntity
100
AcDbLine
  8
contour
 62
256
370
-1
  6
ByLayer
 10
54.082534653465359
 20
316.436990099009904
 30
0.0
 11
154.082534653465359
 21
316.436990099009904
 31
0.0
  0
LINE
  5
4B
100
AcDbEntity
100
AcDbLine
  8
contour
 62
256
370
-1
  6
ByLayer
 10
154.082534653465359
 20
226.436990099009904
 30
0.0
 11
54.082534653465359
 21
226.436990099009904
 31
0.0
  0
LINE
  5
4C
100
AcDbEntity
100
AcDbLine
  8
contour
 62
256
370
-1
  6
ByLayer
 10
54.082534653465359
 20
226.436990099009904
 30
0.0
 11
54.082534653465359
 21
316.436990099009904
 31
0.0
  0
LINE
  5
4D
100
AcDbEntity
100
AcDbLine
  8
contour
 62
256
370
-1
  6
ByLayer
 10
254.082534653465359
 20
316.436990099009904
 30
0.0
 11
254.082534653465359
 21
226.436990099009904
 31
0.0
  0
LINE
  5
4E
100
AcDbEntity
100
AcDbLine
  8
contour
 62
256
370
-1
  6
ByLayer
 10
154.082534653465359
 20
316.436990099009904
 30
0.0
 11
254.082534653465359
 21
316.436990099009904
 31
0.0
  0
LINE
  5
4F
100
AcDbEntity
100
AcDbLine
  8
contour
 62
256
370
-1
  6
ByLayer
 10
254.082534653465359
 20
226.436990099009904
 30
0.0
 11
154.082534653465359
 21
226.436990099009904
 31
0.0
  0
MTEXT
  5
50
100
AcDbEntity
100
AcDbMText
  8
contour
 62
256
370
-1
  6
ByLayer
 10
95.3875090851571343
 20
270.9889297687818726
 30
0.0
 40
6.0
 41
100.0
 71
5
 72
2
  1
100x100x12
  7
normallatin1
 50
0.0
 73
1
 44
1.0
  0
CIRCLE
  5
51
100
AcDbEntity
100
AcDbCircle
  8
contour
 62
256
370
-1
  6
ByLayer
 10
183.082534653465359
 20
271.436990099009904
 30
0.0
 40
3.25
  0
CIRCLE
  5
52
100
AcDbEntity
100
AcDbCircle
  8
contour
 62
256
370
-1
  6
ByLayer
 10
243.082534653465359
 20
271.436990099009904
 30
0.0
 40
3.25
  0
MTEXT
  5
53
100
AcDbEntity
100
AcDbMText
  8
contour
 62
256
370
-1
  6
ByLayer
 10
173.7194001961684933
 20
262.9166822327541126
 30
0.0
 40
6.0
 41
100.0
 71
5
 72
2
  1
6.5
  7
normallatin1
 50
0.0
 73
1
 44
1.0
  0
MTEXT
  5
54
100
AcDbEntity
100
AcDbMText
  8
contour
 62
256
370
-1
  6
ByLayer
 10
234.4985396152803503
 20
264.6287706670952957
 30
0.0
 40
6.0
 41
100.0
 71
5
 72
2
  1
6.5
  7
normallatin1
 50
0.0
 73
1
 44
1.0
  0
LINE
  5
55
100
AcDbEntity
100
AcDbLine
  8
contour
 62
256
370
-1
  6
ByLayer
 10
54.2472079207920785
 20
132.645544554455455
 30
0.0
 11
154.2472079207920785
 21
132.645544554455455
 31
0.0
  0
LINE
  5
56
100
AcDbEntity
100
AcDbLine
  8
contour
 62
256
370
-1
  6
ByLayer
 10
154.2472079207920785
 20
42.6455445544554408
 30
0.0
 11
54.2472079207920785
 21
42.6455445544554408
 31
0.0
  0
LINE
  5
57
100
AcDbEntity
100
AcDbLine
  8
contour
 62
256
370
-1
  6
ByLayer
 10
54.2472079207920785
 20
42.6455445544554408
 30
0.0
 11
54.2472079207920785
 21
132.645544554455455
 31
0.0
  0
LINE
  5
58
100
AcDbEntity
100
AcDbLine
  8
contour
 62
256
370
-1
  6
ByLayer
 10
254.2472079207920785
 20
132.645544554455455
 30
0.0
 11
254.2472079207920785
 21
42.6455445544554408
 31
0.0
  0
LINE
  5
59
100
AcDbEntity
100
AcDbLine
  8
contour
 62
256
370
-1
  6
ByLayer
 10
154.2472079207920785
 20
132.645544554455455
 30
0.0
 11
254.2472079207920785
 21
132.645544554455455
 31
0.0
  0
LINE
  5
5A
100
AcDbEntity
100
AcDbLine
  8
contour
 62
256
370
-1
  6
ByLayer
 10
254.2472079207920785
 20
42.6455445544554408
 30
0.0
 11
154.2472079207920785
 21
42.6455445544554408
 31
0.0
  0
CIRCLE
  5
5B
100
AcDbEntity
100
AcDbCircle
  8
contour
 62
256
370
-1
  6
ByLayer
 10
180.2472079207920785
 20
87.6455445544554408
 30
0.0
 40
3.25
  0
CIRCLE
  5
5C
100
AcDbEntity
100
AcDbCircle
  8
contour
 62
256
370
-1
  6
ByLayer
 10
240.2472079207920785
 20
87.6455445544554408
 30
0.0
 40
3.25
  0
MTEXT
  5
5D
100
AcDbEntity
100
AcDbMText
  8
contour
 62
256
370
-1
  6
ByLayer
 10
170.8840734634952128
 20
79.1252366881996494
 30
0.0
 40
6.0
 41
100.0
 71
5
 72
2
  1
6.5
  7
normallatin1
 50
0.0
 73
1
 44
1.0
  0
MTEXT
  5
5E
100
AcDbEntity
100
AcDbMText
  8
contour
 62
256
370
-1
  6
ByLayer
 10
231.6632128826070698
 20
80.8373251225408183
 30
0.0
 40
6.0
 41
100.0
 71
5
 72
2
  1
6.5
  7
normallatin1
 50
0.0
 73
1
 44
1.0
  0
MTEXT
  5
5F
100
AcDbEntity
100
AcDbMText
  8
contour
 62
256
370
-1
  6
ByLayer
 10
100.902458709800058
 20
86.5621208248695382
 30
0.0
 40
6.0
 41
100.0
 71
5
 72
2
  1
100x100x8
  7
normallatin1
 50
0.0
 73
1
 44
1.0
  0
LINE
  5
60
100
AcDbEntity
100
AcDbLine
  8
contour
 62
256
370
-1
  6
ByLayer
 10
53.870811881188132
 20
224.6236039603960251
 30
0.0
 11
153.870811881188132
 21
224.6236039603960251
 31
0.0
  0
LINE
  5
61
100
AcDbEntity
100
AcDbLine
  8
contour
 62
256
370
-1
  6
ByLayer
 10
153.870811881188132
 20
134.6236039603960251
 30
0.0
 11
53.870811881188132
 21
134.6236039603960251
 31
0.0
  0
LINE
  5
62
100
AcDbEntity
100
AcDbLine
  8
contour
 62
256
370
-1
  6
ByLayer
 10
53.870811881188132
 20
134.6236039603960251
 30
0.0
 11
53.870811881188132
 21
224.6236039603960251
 31
0.0
  0
LINE
  5
63
100
AcDbEntity
100
AcDbLine
  8
contour
 62
256
370
-1
  6
ByLayer
 10
253.870811881188132
 20
224.6236039603960251
 30
0.0
 11
253.870811881188132
 21
134.6236039603960251
 31
0.0
  0
LINE
  5
64
100
AcDbEntity
100
AcDbLine
  8
contour
 62
256
370
-1
  6
ByLayer
 10
153.870811881188132
 20
224.6236039603960251
 30
0.0
 11
253.870811881188132
 21
224.6236039603960251
 31
0.0
  0
LINE
  5
65
100
AcDbEntity
100
AcDbLine
  8
contour
 62
256
370
-1
  6
ByLayer
 10
253.870811881188132
 20
134.6236039603960251
 30
0.0
 11
153.870811881188132
 21
134.6236039603960251
 31
0.0
  0
MTEXT
  5
66
100
AcDbEntity
100
AcDbMText
  8
contour
 62
256
370
-1
  6
ByLayer
 10
97.8572781255315931
 20
180.8642155644826346
 30
0.0
 40
6.0
 41
100.0
 71
5
 72
2
  1
100x100x10
  7
normallatin1
 50
0.0
 73
1
 44
1.0
  0
CIRCLE
  5
67
100
AcDbEntity
100
AcDbCircle
  8
contour
 62
256
370
-1
  6
ByLayer
 10
180.870811881188132
 20
179.6236039603960251
 30
0.0
 40
3.25
  0
CIRCLE
  5
68
100
AcDbEntity
100
AcDbCircle
  8
contour
 62
256
370
-1
  6
ByLayer
 10
240.870811881188132
 20
179.6236039603960251
 30
0.0
 40
3.25
  0
MTEXT
  5
69
100
AcDbEntity
100
AcDbMText
  8
contour
 62
256
370
-1
  6
ByLayer
 10
171.5076774238912662
 20
171.1032960941402337
 30
0.0
 40
6.0
 41
100.0
 71
5
 72
2
  1
6.5
  7
normallatin1
 50
0.0
 73
1
 44
1.0
  0
MTEXT
  5
6A
100
AcDbEntity
100
AcDbMText
  8
contour
 62
256
370
-1
  6
ByLayer
 10
232.2868168430031233
 20
172.8153845284814167
 30
0.0
 40
6.0
 41
100.0
 71
5
 72
2
  1
6.5
  7
normallatin1
 50
0.0
 73
1
 44
1.0
  0
LINE
  5
6B
100
AcDbEntity
100
AcDbLine
  8
helper
 62
256
370
-1
  6
ByLayer
 10
54.082534653465359
 20
301.436990099009904
 30
0.0
 11
154.082534653465359
 21
301.436990099009904
 31
0.0
  0
LINE
  5
6C
100
AcDbEntity
100
AcDbLine
  8
helper
 62
256
370
-1
  6
ByLayer
 10
54.082534653465359
 20
241.436990099009904
 30
0.0
 11
154.082534653465359
 21
241.436990099009904
 31
0.0
  0
LINE
  5
6D
100
AcDbEntity
100
AcDbLine
  8
helper
 62
256
370
-1
  6
ByLayer
 10
154.082534653465359
 20
271.436990099009904
 30
0.0
 11
254.082534653465359
 21
271.436990099009904
 31
0.0
  0
LINE
  5
6E
100
AcDbEntity
100
AcDbLine
  8
helper
 62
256
370
-1
  6
ByLayer
 10
63.082534653465359
 20
226.436990099009904
 30
0.0
 11
63.082534653465359
 21
316.436990099009904
 31
0.0
  0
LINE
  5
6F
100
AcDbEntity
100
AcDbLine
  8
helper
 62
256
370
-1
  6
ByLayer
 10
123.082534653465359
 20
226.436990099009904
 30
0.0
 11
123.082534653465359
 21
316.436990099009904
 31
0.0
  0
LINE
  5
70
100
AcDbEntity
100
AcDbLine
  8
helper
 62
256
370
-1
  6
ByLayer
 10
243.082534653465359
 20
316.436990099009904
 30
0.0
 11
243.082534653465359
 21
226.436990099009904
 31
0.0
  0
LINE
  5
71
100
AcDbEntity
100
AcDbLine
  8
helper
 62
256
370
-1
  6
ByLayer
 10
183.082534653465359
 20
316.436990099009904
 30
0.0
 11
183.082534653465359
 21
226.4369900990099325
 31
0.0
  0
LINE
  5
72
100
AcDbEntity
100
AcDbLine
  8
helper
 62
256
370
-1
  6
ByLayer
 10
54.2472079207920785
 20
117.6455445544554408
 30
0.0
 11
154.2472079207920785
 21
117.6455445544554408
 31
0.0
  0
LINE
  5
73
100
AcDbEntity
100
AcDbLine
  8
helper
 62
256
370
-1
  6
ByLayer
 10
54.2472079207920785
 20
57.6455445544554408
 30
0.0
 11
154.2472079207920785
 21
57.6455445544554408
 31
0.0
  0
LINE
  5
74
100
AcDbEntity
100
AcDbLine
  8
helper
 62
256
370
-1
  6
ByLayer
 10
67.2472079207920785
 20
42.6455445544554408
 30
0.0
 11
67.2472079207920785
 21
132.645544554455455
 31
0.0
  0
LINE
  5
75
100
AcDbEntity
100
AcDbLine
  8
helper
 62
256
370
-1
  6
ByLayer
 10
127.2472079207920785
 20
42.6455445544554408
 30
0.0
 11
127.2472079207920785
 21
132.645544554455455
 31
0.0
  0
LINE
  5
76
100
AcDbEntity
100
AcDbLine
  8
helper
 62
256
370
-1
  6
ByLayer
 10
240.2472079207920785
 20
132.645544554455455
 30
0.0
 11
240.2472079207920785
 21
42.6455445544554479
 31
0.0
  0
LINE
  5
77
100
AcDbEntity
100
AcDbLine
  8
helper
 62
256
370
-1
  6
ByLayer
 10
180.2472079207920785
 20
132.645544554455455
 30
0.0
 11
180.2472079207920785
 21
42.6455445544554763
 31
0.0
  0
LINE
  5
78
100
AcDbEntity
100
AcDbLine
  8
helper
 62
256
370
-1
  6
ByLayer
 10
154.2472079207920785
 20
87.6455445544554408
 30
0.0
 11
254.2472079207920785
 21
87.6455445544554408
 31
0.0
  0
LINE
  5
79
100
AcDbEntity
100
AcDbLine
  8
helper
 62
256
370
-1
  6
ByLayer
 10
53.870811881188132
 20
209.6236039603960251
 30
0.0
 11
153.870811881188132
 21
209.6236039603960251
 31
0.0
  0
LINE
  5
7A
100
AcDbEntity
100
AcDbLine
  8
helper
 62
256
370
-1
  6
ByLayer
 10
53.870811881188132
 20
149.6236039603960251
 30
0.0
 11
153.870811881188132
 21
149.6236039603960251
 31
0.0
  0
LINE
  5
7B
100
AcDbEntity
100
AcDbLine
  8
helper
 62
256
370
-1
  6
ByLayer
 10
153.870811881188132
 20
179.6236039603960251
 30
0.0
 11
253.870811881188132
 21
179.6236039603960251
 31
0.0
  0
LINE
  5
7C
100
AcDbEntity
100
AcDbLine
  8
helper
 62
256
370
-1
  6
ByLayer
 10
64.870811881188132
 20
134.6236039603960251
 30
0.0
 11
64.870811881188132
 21
224.6236039603960251
 31
0.0
  0
LINE
  5
7D
100
AcDbEntity
100
AcDbLine
  8
helper
 62
256
370
-1
  6
ByLayer
 10
124.870811881188132
 20
134.6236039603960251
 30
0.0
 11
124.870811881188132
 21
224.6236039603960251
 31
0.0
  0
LINE
  5
7E
100
AcDbEntity
100
AcDbLine
  8
helper
 62
256
370
-1
  6
ByLayer
 10
240.870811881188132
 20
224.6236039603960251
 30
0.0
 11
240.870811881188132
 21
134.6236039603960251
 31
0.0
  0
LINE
  5
7F
100
AcDbEntity
100
AcDbLine
  8
helper
 62
256
370
-1
  6
ByLayer
 10
180.870811881188132
 20
224.6236039603960535
 30
0.0
 11
180.870811881188132
 21
134.6236039603960535
 31
0.0
  0
LINE
  5
80
100
AcDbEntity
100
AcDbLine
  8
bend
 62
256
370
-1
  6
ByLayer
 10
154.082534653465359
 20
316.436990099009904
 30
0.0
 11
154.082534653465359
 21
226.436990099009904
 31
0.0
  0
LINE
  5
81
100
AcDbEntity
100
AcDbLine
  8
bend
 62
256
370
-1
  6
ByLayer
 10
154.2472079207920785
 20
132.645544554455455
 30
0.0
 11
154.2472079207920785
 21
42.6455445544554408
 31
0.0
  0
LINE
  5
82
100
AcDbEntity
100
AcDbLine
  8
bend
 62
256
370
-1
  6
ByLayer
 10
153.870811881188132
 20
224.6236039603960251
 30
0.0
 11
153.870811881188132
 21
134.6236039603960251
 31
0.0
  0
CIRCLE
  5
83
100
AcDbEntity
100
AcDbCircle
  8
contour
 62
256
370
-1
  6
ByLayer
 10
63.082534653465359
 20
301.436990099009904
 30
0.0
 40
4.75
  0
CIRCLE
  5
84
100
AcDbEntity
100
AcDbCircle
  8
contour
 62
256
370
-1
  6
ByLayer
 10
123.082534653465359
 20
301.436990099009904
 30
0.0
 40
4.75
  0
CIRCLE
  5
85
100
AcDbEntity
100
AcDbCircle
  8
contour
 62
256
370
-1
  6
ByLayer
 10
123.082534653465359
 20
241.436990099009904
 30
0.0
 40
4.75
  0
CIRCLE
  5
86
100
AcDbEntity
100
AcDbCircle
  8
contour
 62
256
370
-1
  6
ByLayer
 10
63.082534653465359
 20
241.436990099009904
 30
0.0
 40
4.75
  0
CIRCLE
  5
87
100
AcDbEntity
100
AcDbCircle
  8
contour
 62
256
370
-1
  6
ByLayer
 10
64.870811881188132
 20
209.6236039603960251
 30
0.0
 40
4.75
  0
CIRCLE
  5
88
100
AcDbEntity
100
AcDbCircle
  8
contour
 62
256
370
-1
  6
ByLayer
 10
124.870811881188132
 20
209.6236039603960251
 30
0.0
 40
4.75
  0
CIRCLE
  5
89
100
AcDbEntity
100
AcDbCircle
  8
contour
 62
256
370
-1
  6
ByLayer
 10
124.870811881188132
 20
149.6236039603960251
 30
0.0
 40
4.75
  0
CIRCLE
  5
8A
100
AcDbEntity
100
AcDbCircle
  8
contour
 62
256
370
-1
  6
ByLayer
 10
64.870811881188132
 20
149.6236039603960251
 30
0.0
 40
4.75
  0
CIRCLE
  5
8B
100
AcDbEntity
100
AcDbCircle
  8
contour
 62
256
370
-1
  6
ByLayer
 10
67.2472079207920785
 20
117.6455445544554408
 30
0.0
 40
4.75
  0
CIRCLE
  5
8C
100
AcDbEntity
100
AcDbCircle
  8
contour
 62
256
370
-1
  6
ByLayer
 10
127.2472079207920785
 20
117.6455445544554408
 30
0.0
 40
4.75
  0
CIRCLE
  5
8D
100
AcDbEntity
100
AcDbCircle
  8
contour
 62
256
370
-1
  6
ByLayer
 10
127.2472079207920785
 20
57.6455445544554408
 30
0.0
 40
4.75
  0
CIRCLE
  5
8E
100
AcDbEntity
100
AcDbCircle
  8
contour
 62
256
370
-1
  6
ByLayer
 10
67.2472079207920785
 20
57.6455445544554408
 30
0.0
 40
4.75
  0
MTEXT
  5
8F
100
AcDbEntity
100
AcDbMText
  8
contour
 62
256
370
-1
  6
ByLayer
 10
75.2195545098705765
 20
289.9996751048805663
 30
0.0
 40
10.0
 41
100.0
 71
5
 72
2
  1
9.5
  7
normallatin1
 50
0.0
 73
0
 44
1.0
  0
MTEXT
  5
90
100
AcDbEntity
100
AcDbMText
  8
contour
 62
256
370
-1
  6
ByLayer
 10
136.3459674660336987
 20
290.5846168556572593
 30
0.0
 40
10.0
 41
100.0
 71
5
 72
2
  1
9.5
  7
normallatin1
 50
0.0
 73
0
 44
1.0
  0
MTEXT
  5
91
100
AcDbEntity
100
AcDbMText
  8
contour
 62
256
370
-1
  6
ByLayer
 10
76.3894380114239482
 20
250.5161069274546435
 30
0.0
 40
10.0
 41
100.0
 71
5
 72
2
  1
9.5
  7
normallatin1
 50
0.0
 73
0
 44
1.0
  0
MTEXT
  5
92
100
AcDbEntity
100
AcDbMText
  8
contour
 62
256
370
-1
  6
ByLayer
 10
137.8083218429753742
 20
251.1010486782313365
 30
0.0
 40
10.0
 41
100.0
 71
5
 72
2
  1
9.5
  7
normallatin1
 50
0.0
 73
0
 44
1.0
  0
MTEXT
  5
93
100
AcDbEntity
100
AcDbMText
  8
contour
 62
256
370
-1
  6
ByLayer
 10
138.1342446937564716
 20
198.7712307170433803
 30
0.0
 40
10.0
 41
100.0
 71
5
 72
2
  1
9.5
  7
normallatin1
 50
0.0
 73
0
 44
1.0
  0
MTEXT
  5
94
100
AcDbEntity
100
AcDbMText
  8
contour
 62
256
370
-1
  6
ByLayer
 10
77.0078317375933494
 20
198.1862889662666873
 30
0.0
 40
10.0
 41
100.0
 71
5
 72
2
  1
9.5
  7
normallatin1
 50
0.0
 73
0
 44
1.0
  0
MTEXT
  5
95
100
AcDbEntity
100
AcDbMText
  8
contour
 62
256
370
-1
  6
ByLayer
 10
78.1777152391467212
 20
158.7027207888407645
 30
0.0
 40
10.0
 41
100.0
 71
5
 72
2
  1
9.5
  7
normallatin1
 50
0.0
 73
0
 44
1.0
  0
MTEXT
  5
96
100
AcDbEntity
100
AcDbMText
  8
contour
 62
256
370
-1
  6
ByLayer
 10
139.5965990706981472
 20
159.287662539617429
 30
0.0
 40
10.0
 41
100.0
 71
5
 72
2
  1
9.5
  7
normallatin1
 50
0.0
 73
0
 44
1.0
  0
MTEXT
  5
97
100
AcDbEntity
100
AcDbMText
  8
contour
 62
256
370
-1
  6
ByLayer
 10
140.5106407333604182
 20
106.7931713111027818
 30
0.0
 40
10.0
 41
100.0
 71
5
 72
2
  1
9.5
  7
normallatin1
 50
0.0
 73
0
 44
1.0
  0
MTEXT
  5
98
100
AcDbEntity
100
AcDbMText
  8
contour
 62
256
370
-1
  6
ByLayer
 10
79.3842277771972959
 20
106.2082295603261031
 30
0.0
 40
10.0
 41
100.0
 71
5
 72
2
  1
9.5
  7
normallatin1
 50
0.0
 73
0
 44
1.0
  0
MTEXT
  5
99
100
AcDbEntity
100
AcDbMText
  8
contour
 62
256
370
-1
  6
ByLayer
 10
141.9729951103020937
 20
67.3096031336768448
 30
0.0
 40
10.0
 41
100.0
 71
5
 72
2
  1
9.5
  7
normallatin1
 50
0.0
 73
0
 44
1.0
  0
MTEXT
  5
9A
100
AcDbEntity
100
AcDbMText
  8
contour
 62
256
370
-1
  6
ByLayer
 10
80.5541112787506677
 20
66.724661382900166
 30
0.0
 40
10.0
 41
100.0
 71
5
 72
2
  1
9.5
  7
normallatin1
 50
0.0
 73
0
 44
1.0
  0
ENDSEC
  0
SECTION
  2
OBJECTS
  0
DICTIONARY
  5
C
100
AcDbDictionary
280
0
281
1
  3
ACAD_GROUP
350
D
  3
ACAD_LAYOUT
350
1A
  3
ACAD_MLINESTYLE
350
17
  3
ACAD_PLOTSETTINGS
350
19
  3
ACAD_PLOTSTYLENAME
350
E
  3
AcDbVariableDictionary
350
9B
  0
DICTIONARY
  5
D
100
AcDbDictionary
280
0
281
1
  0
ACDBDICTIONARYWDFLT
  5
E
100
AcDbDictionary
281
1
  3
Normal
350
F
100
AcDbDictionaryWithDefault
340
F
  0
ACDBPLACEHOLDER
  5
F
  0
DICTIONARY
  5
17
100
AcDbDictionary
280
0
281
1
  3
Standard
350
18
  0
MLINESTYLE
  5
18
100
AcDbMlineStyle
  2
STANDARD
 70
0
  3

 62
256
 51
90.0
 52
90.0
 71
2
 49
0.5
 62
256
  6
BYLAYER
 49
-0.5
 62
256
  6
BYLAYER
  0
DICTIONARY
  5
19
100
AcDbDictionary
280
0
281
1
  0
DICTIONARY
  5
1A
100
AcDbDictionary
281
1
  3
Layout1
350
1E
  3
Layout2
350
26
  3
Model
350
22
  0
LAYOUT
  5
1E
100
AcDbPlotSettings
  1

  2
C:\Program Files\AutoCAD 2002\plotters\DWF ePlot (optimized for plotting).pc3
  4

  6

 40
0.0
 41
0.0
 42
0.0
 43
0.0
 44
0.0
 45
0.0
 46
0.0
 47
0.0
 48
0.0
 49
0.0
140
0.0
141
0.0
142
1.0
143
1.0
 70
688
 72
0
 73
0
 74
5
  7

 75
16
147
1.0
148
0.0
149
0.0
100
AcDbLayout
  1
Layout1
 70
1
 71
1
 10
0.0
 20
0.0
 11
420.0
 21
297.0
 12
0.0
 22
0.0
 32
0.0
 14
100000000000000000000.0
 24
100000000000000000000.0
 34
100000000000000000000.0
 15
-100000000000000000000.0
 25
-100000000000000000000.0
 35
-100000000000000000000.0
146
0.0
 13
0.0
 23
0.0
 33
0.0
 16
1.0
 26
0.0
 36
0.0
 17
0.0
 27
1.0
 37
0.0
 76
0
330
1B
  0
LAYOUT
  5
22
100
AcDbPlotSettings
  1

  2
C:\Program Files\AutoCAD 2002\plotters\DWF ePlot (optimized for plotting).pc3
  4

  6

 40
0.0
 41
0.0
 42
0.0
 43
0.0
 44
0.0
 45
0.0
 46
0.0
 47
0.0
 48
0.0
 49
0.0
140
0.0
141
0.0
142
1.0
143
1.0
 70
1712
 72
0
 73
0
 74
0
  7

 75
0
147
1.0
148
0.0
149
0.0
100
AcDbLayout
  1
Model
 70
1
 71
0
 10
0.0
 20
0.0
 11
12.0
 21
9.0
 12
0.0
 22
0.0
 32
0.0
 14
0.0
 24
0.0
 34
0.0
 15
0.0
 25
0.0
 35
0.0
146
0.0
 13
0.0
 23
0.0
 33
0.0
 16
1.0
 26
0.0
 36
0.0
 17
0.0
 27
1.0
 37
0.0
 76
0
330
1F
  0
LAYOUT
  5
26
100
AcDbPlotSettings
  1

  2
C:\Program Files\AutoCAD 2002\plotters\DWF ePlot (optimized for plotting).pc3
  4

  6

 40
0.0
 41
0.0
 42
0.0
 43
0.0
 44
0.0
 45
0.0
 46
0.0
 47
0.0
 48
0.0
 49
0.0
140
0.0
141
0.0
142
1.0
143
1.0
 70
688
 72
0
 73
0
 74
5
  7

 75
16
147
1.0
148
0.0
149
0.0
100
AcDbLayout
  1
Layout2
 70
1
 71
2
 10
0.0
 20
0.0
 11
12.0
 21
9.0
 12
0.0
 22
0.0
 32
0.0
 14
0.0
 24
0.0
 34
0.0
 15
0.0
 25
0.0
 35
0.0
146
0.0
 13
0.0
 23
0.0
 33
0.0
 16
1.0
 26
0.0
 36
0.0
 17
0.0
 27
1.0
 37
0.0
 76
0
330
23
  0
DICTIONARY
  5
9B
100
AcDbDictionary
281
1
  3
DIMASSOC
350
9D
  3
HIDETEXT
350
9C
  0
DICTIONARYVAR
  5
9C
100
DictionaryVariables
280
0
  1
2
  0
DICTIONARYVAR
  5
9D
100
DictionaryVariables
280
0
  1
1
  0
ENDSEC
  0
EOF
