  0
SECTION
  2
HEADER
  9
$LIMMIN
 10
0.000000
 20
0.000000
  9
$LIMMAX
 10
201.478588
 20
269.765507
  9
$EXTMIN
 10
0.000000
 20
0.000000
  9
$EXTMAX
 10
201.478588
 20
269.765507
  9
$ANGBASE
 50
0.000000
  9
$ANGDIR
 70
0
  9
$INSUNITS
 70
4
  9
$DIMALT
 70
4
  9
$DIMLUNIT
 70
2
  9
$DIMASZ
 40
3.000000
  9
$DIMTXT
 40
5.000000
  9
$DIMRND
 40
0.010000
  9
$DIMEXE
 40
2.000000
  9
$DIMEXO
 40
2.000000
  9
$DIMAUNIT
 70
0
  9
$DIMADEC
 70
2
  9
$GRIDUNIT
 10
0.001000
 20
0.001000
  9
$PLIMMIN
 10
0.000000
 20
0.000000
  9
$PLIMMAX
 10
210.000000
 20
297.000000
  9
$PSVPSCALE
 40
1.000000
  0
ENDSEC
  0
SECTION
  2
TABLES
  0
TABLE
  2
LTYPE
 70
     1
  0
LTYPE
  2
CONTINUOUS
 70
    64
  3
Ausgez
 72
    65
 73
  0
 40
0.000000
  0
ENDTAB
  0
TABLE
  2
LAYER
 70
     1
  0
LAYER
  2
default
 70
    64
 62
7
  6
CONTINUOUS
  0
LAYER
  2
contour
 70
    64
 62
7
  6
CONTINUOUS
  0
LAYER
  2
helper
 70
    64
 62
7
  6
CONTINUOUS
  0
ENDTAB
  0
ENDSEC
  0
SECTION
  2
BLOCKS
  0
ENDSEC
  0
SECTION
  2
ENTITIES
  0
LINE
  8
contour
  6
CONTINUOUS
 10
102.478588
 20
269.765507
 11
102.478588
 21
239.765507
 39
3
 62
7
  0
LINE
  8
contour
  6
CONTINUOUS
 10
104.478588
 20
269.765507
 11
104.478588
 21
239.765507
 39
3
 62
7
  0
LINE
  8
helper
  6
CONTINUOUS
 10
32.478588
 20
269.765507
 11
32.478588
 21
239.765507
 39
0
 62
7
  0
LINE
  8
helper
  6
CONTINUOUS
 10
114.478588
 20
269.765507
 11
114.478588
 21
239.765507
 39
0
 62
7
  0
LINE
  8
helper
  6
CONTINUOUS
 10
92.478588
 20
269.765507
 11
92.478588
 21
239.765507
 39
0
 62
7
  0
LINE
  8
helper
  6
CONTINUOUS
 10
174.478588
 20
269.765507
 11
174.478588
 21
239.765507
 39
0
 62
7
  0
CIRCLE
  8
contour
  6
CONTINUOUS
 10
32.478588
 20
254.765507
 40
3.250000
 39
3
 62
7
  0
CIRCLE
  8
contour
  6
CONTINUOUS
 10
92.478588
 20
254.765507
 40
3.250000
 39
3
 62
7
  0
CIRCLE
  8
contour
  6
CONTINUOUS
 10
114.478588
 20
254.765507
 40
3.250000
 39
3
 62
7
  0
CIRCLE
  8
contour
  6
CONTINUOUS
 10
174.478588
 20
254.765507
 40
3.250000
 39
3
 62
7
  0
TEXT
  8
contour
  6
CONTINUOUS
 10
37.678324
 20
257.881394
 40
8.000000
 50
0.000000
 72
0
  7
Normal#0.800000#4.800000
  1
6.5
 39
3
 62
7
  0
TEXT
  8
contour
  6
CONTINUOUS
 10
80.157513
 20
258.215876
 40
8.000000
 50
0.000000
 72
0
  7
Normal#0.800000#4.800000
  1
6.5
 39
3
 62
7
  0
TEXT
  8
contour
  6
CONTINUOUS
 10
119.291883
 20
259.553803
 40
8.000000
 50
0.000000
 72
0
  7
Normal#0.800000#4.800000
  1
6.5
 39
3
 62
7
  0
TEXT
  8
contour
  6
CONTINUOUS
 10
162.105553
 20
258.550358
 40
8.000000
 50
0.000000
 72
0
  7
Normal#0.800000#4.800000
  1
6.5
 39
3
 62
7
  0
LINE
  8
contour
  6
CONTINUOUS
 10
15.478588
 20
269.765507
 11
102.478588
 21
269.765507
 39
3
 62
7
  0
LINE
  8
contour
  6
CONTINUOUS
 10
15.478588
 20
269.765507
 11
15.478588
 21
239.765507
 39
3
 62
7
  0
LINE
  8
contour
  6
CONTINUOUS
 10
104.478588
 20
269.765507
 11
191.478588
 21
269.765507
 39
3
 62
7
  0
LINE
  8
contour
  6
CONTINUOUS
 10
191.478588
 20
269.765507
 11
191.478588
 21
239.765507
 39
3
 62
7
  0
LINE
  8
contour
  6
CONTINUOUS
 10
104.478588
 20
239.765507
 11
191.478588
 21
239.765507
 39
3
 62
7
  0
LINE
  8
helper
  6
CONTINUOUS
 10
15.478588
 20
254.765507
 11
102.478588
 21
254.765507
 39
0
 62
7
  0
LINE
  8
helper
  6
CONTINUOUS
 10
104.478588
 20
254.765507
 11
191.478588
 21
254.765507
 39
0
 62
7
  0
CIRCLE
  8
contour
  6
CONTINUOUS
 10
70.478588
 20
159.765507
 40
4.250000
 39
3
 62
7
  0
TEXT
  8
contour
  6
CONTINUOUS
 10
74.474101
 20
147.222783
 40
10.000000
 50
0.000000
 72
0
  7
Normal#2.000000#6.000000
  1
8.5
 39
3
 62
7
  0
LINE
  8
helper
  6
CONTINUOUS
 10
29.478588
 20
159.765507
 11
111.478588
 21
159.765507
 39
0
 62
7
  0
LINE
  8
contour
  6
CONTINUOUS
 10
70.478588
 20
200.765507
 11
111.478588
 21
200.765507
 39
3
 62
7
  0
LINE
  8
contour
  6
CONTINUOUS
 10
70.478588
 20
118.765507
 11
111.478588
 21
118.765507
 39
3
 62
7
  0
ARC
  8
contour
  6
CONTINUOUS
 10
70.478588
 20
159.765507
 40
41.000000
 50
90.000000
 51
270.000000
 39
3
 62
7
  0
LINE
  8
helper
  6
CONTINUOUS
 10
70.478588
 20
200.765507
 11
70.478588
 21
118.765507
 39
0
 62
7
  0
CIRCLE
  8
contour
  6
CONTINUOUS
 10
156.478588
 20
159.765507
 40
4.250000
 39
3
 62
7
  0
LINE
  8
helper
  6
CONTINUOUS
 10
197.478588
 20
159.765507
 11
115.478588
 21
159.765507
 39
0
 62
7
  0
LINE
  8
contour
  6
CONTINUOUS
 10
156.478588
 20
200.765507
 11
115.478588
 21
200.765507
 39
3
 62
7
  0
LINE
  8
contour
  6
CONTINUOUS
 10
156.478588
 20
118.765507
 11
115.478588
 21
118.765507
 39
3
 62
7
  0
LINE
  8
helper
  6
CONTINUOUS
 10
156.478588
 20
200.765507
 11
156.478588
 21
118.765507
 39
0
 62
7
  0
TEXT
  8
contour
  6
CONTINUOUS
 10
139.866965
 20
144.869496
 40
10.000000
 50
0.000000
 72
0
  7
Normal#2.000000#6.000000
  1
8.5
 39
3
 62
7
  0
LINE
  8
contour
  6
CONTINUOUS
 10
128.478588
 20
200.765507
 11
156.478588
 21
200.765507
 39
3
 62
7
  0
ARC
  8
contour
  6
CONTINUOUS
 10
156.478588
 20
159.765507
 40
41.000000
 50
270.000000
 51
90.000000
 39
3
 62
7
  0
TEXT
  8
contour
  6
CONTINUOUS
 10
91.563157
 20
181.301135
 40
8.000000
 50
0.000000
 72
1
  7
Normal#0.800000#4.800000
  1
Plasma
 39
3
 62
7
  0
TEXT
  8
contour
  6
CONTINUOUS
 10
135.367458
 20
181.909528
 40
8.000000
 50
0.000000
 72
1
  7
Normal#0.800000#4.800000
  1
Plasma
 39
3
 62
7
  0
TEXT
  8
contour
  6
CONTINUOUS
 10
65.402255
 20
244.269817
 40
8.000000
 50
0.000000
 72
1
  7
Normal#0.800000#4.800000
  1
Saw
 39
3
 62
7
  0
TEXT
  8
contour
  6
CONTINUOUS
 10
144.797550
 20
243.357228
 40
8.000000
 50
0.000000
 72
1
  7
Normal#0.800000#4.800000
  1
Saw
 39
3
 62
7
  0
ARC
  8
contour
  6
CONTINUOUS
 10
70.478588
 20
159.765507
 40
45.000000
 50
90.000000
 51
270.000000
 39
3
 62
7
  0
LINE
  8
contour
  6
CONTINUOUS
 10
70.478588
 20
114.765507
 11
156.478588
 21
114.765507
 39
3
 62
7
  0
ARC
  8
contour
  6
CONTINUOUS
 10
156.478588
 20
159.765507
 40
45.000000
 50
270.000000
 51
90.000000
 39
3
 62
7
  0
LINE
  8
contour
  6
CONTINUOUS
 10
115.478588
 20
204.765507
 11
115.478588
 21
114.765507
 39
3
 62
7
  0
LINE
  8
contour
  6
CONTINUOUS
 10
111.478588
 20
204.765507
 11
111.478588
 21
114.765507
 39
3
 62
7
  0
LINE
  8
helper
  6
CONTINUOUS
 10
70.478588
 20
116.765507
 11
111.478588
 21
116.765507
 39
1
 62
7
  0
LINE
  8
helper
  6
CONTINUOUS
 10
70.478588
 20
116.765507
 11
156.478588
 21
116.765507
 39
1
 62
7
  0
ARC
  8
helper
  6
CONTINUOUS
 10
156.478588
 20
159.765507
 40
43.000000
 50
270.000000
 51
90.000000
 39
1
 62
7
  0
LINE
  8
helper
  6
CONTINUOUS
 10
156.478588
 20
202.765507
 11
70.478588
 21
202.765507
 39
1
 62
7
  0
ARC
  8
helper
  6
CONTINUOUS
 10
70.478588
 20
159.765507
 40
43.000000
 50
90.000000
 51
270.000000
 39
1
 62
7
  0
LINE
  8
helper
  6
CONTINUOUS
 10
113.478588
 20
202.765507
 11
113.478588
 21
116.765507
 39
1
 62
7
  0
LINE
  8
contour
  6
CONTINUOUS
 10
19.478588
 20
239.765507
 11
106.478588
 21
239.765507
 39
3
 62
7
  0
LINE
  8
contour
  6
CONTINUOUS
 10
131.478588
 20
239.765507
 11
168.478588
 21
239.765507
 39
3
 62
7
  0
LINE
  8
contour
  6
CONTINUOUS
 10
131.478588
 20
239.765507
 11
131.478588
 21
204.765507
 39
3
 62
7
  0
LINE
  8
contour
  6
CONTINUOUS
 10
129.478588
 20
239.765507
 11
129.478588
 21
204.765507
 39
3
 62
7
  0
LINE
  8
contour
  6
CONTINUOUS
 10
131.478588
 20
204.765507
 11
168.478588
 21
204.765507
 39
3
 62
7
  0
TEXT
  8
contour
  6
CONTINUOUS
 10
149.710140
 20
211.720788
 40
8.000000
 50
0.000000
 72
1
  7
Normal#0.800000#4.800000
  1
Saw
 39
3
 62
7
  0
TEXT
  8
contour
  6
CONTINUOUS
 10
51.454659
 20
226.626418
 40
8.000000
 50
0.000000
 72
1
  7
Normal#0.800000#4.800000
  1
Saw
 39
3
 62
7
  0
LINE
  8
contour
  6
CONTINUOUS
 10
173.478588
 20
239.765507
 11
173.478588
 21
204.765507
 39
3
 62
7
  0
LINE
  8
contour
  6
CONTINUOUS
 10
168.478588
 20
204.765507
 11
173.478588
 21
204.765507
 39
3
 62
7
  0
LINE
  8
contour
  6
CONTINUOUS
 10
72.478588
 20
239.765507
 11
72.478588
 21
204.765507
 39
1
 62
7
  0
LINE
  8
contour
  6
CONTINUOUS
 10
129.478588
 20
239.765507
 11
15.478588
 21
239.765507
 39
3
 62
7
  0
LINE
  8
contour
  6
CONTINUOUS
 10
15.478588
 20
239.765507
 11
15.478588
 21
204.765507
 39
3
 62
7
  0
LINE
  8
contour
  6
CONTINUOUS
 10
15.478588
 20
204.765507
 11
129.478588
 21
204.765507
 39
3
 62
7
  0
LINE
  8
helper
  6
CONTINUOUS
 10
15.478588
 20
222.265507
 11
129.478588
 21
222.265507
 39
1
 62
7
  0
TEXT
  8
contour
  6
CONTINUOUS
 10
80.485544
 20
209.361430
 40
10.000000
 50
0.000000
 72
0
  7
Normal#1.000000#6.000000
  1
8.5(8-10)
 39
3
 62
7
  0
CIRCLE
  8
contour
  6
CONTINUOUS
 10
72.478588
 20
222.265507
 40
4.250000
 39
3
 62
7
  0
TEXT
  8
contour
  6
CONTINUOUS
 10
91.563157
 20
170.101135
 40
8.000000
 50
0.000000
 72
1
  7
Normal#0.800000#4.800000
  1
4mm
 39
3
 62
7
  0
TEXT
  8
contour
  6
CONTINUOUS
 10
135.367458
 20
170.709528
 40
8.000000
 50
0.000000
 72
1
  7
Normal#0.800000#4.800000
  1
4mm
 39
3
 62
7
  0
ENDSEC
  0
EOF
