  0
SECTION
  2
HEADER
  9
$LIMMIN
 10
0.000000
 20
0.000000
  9
$LIMMAX
 10
193.329803
 20
245.214031
  9
$EXTMIN
 10
0.000000
 20
0.000000
  9
$EXTMAX
 10
193.329803
 20
245.214031
  9
$ANGBASE
 50
0.000000
  9
$ANGDIR
 70
0
  9
$INSUNITS
 70
4
  9
$DIMALT
 70
4
  9
$DIMLUNIT
 70
2
  9
$DIMASZ
 40
3.000000
  9
$DIMTXT
 40
5.000000
  9
$DIMRND
 40
0.010000
  9
$DIMEXE
 40
2.000000
  9
$DIMEXO
 40
2.000000
  9
$DIMAUNIT
 70
0
  9
$DIMADEC
 70
2
  9
$GRIDUNIT
 10
0.001000
 20
0.001000
  9
$PLIMMIN
 10
0.000000
 20
0.000000
  9
$PLIMMAX
 10
210.000000
 20
297.000000
  9
$PSVPSCALE
 40
1.000000
  0
ENDSEC
  0
SECTION
  2
TABLES
  0
TABLE
  2
LTYPE
 70
     1
  0
LTYPE
  2
CONTINUOUS
 70
    64
  3
Ausgez
 72
    65
 73
  0
 40
0.000000
  0
ENDTAB
  0
TABLE
  2
LAYER
 70
     1
  0
LAYER
  2
default
 70
    64
 62
7
  6
CONTINUOUS
  0
LAYER
  2
dim
 70
    64
 62
7
  6
CONTINUOUS
  0
LAYER
  2
contour
 70
    64
 62
7
  6
CONTINUOUS
  0
LAYER
  2
invis
 70
    64
 62
7
  6
DASH
  0
LAYER
  2
helper
 70
    64
 62
7
  6
CONTINUOUS
  0
LAYER
  2
plasma
 70
    64
 62
7
  6
DOT
  0
ENDTAB
  0
ENDSEC
  0
SECTION
  2
BLOCKS
  0
ENDSEC
  0
SECTION
  2
ENTITIES
  0
CIRCLE
  8
default
  6
CONTINUOUS
 10
134.543705
 20
182.714031
 40
3.250000
 39
3
 62
7
  0
CIRCLE
  8
default
  6
CONTINUOUS
 10
73.921927
 20
182.714031
 40
3.250000
 39
3
 62
7
  0
CIRCLE
  8
default
  6
CONTINUOUS
 10
104.232816
 20
235.214031
 40
3.250000
 39
3
 62
7
  0
LINE
  8
default
  6
CONTINUOUS
 10
99.036664
 20
238.214031
 11
68.725774
 21
185.714031
 39
3
 62
7
  0
ARC
  8
default
  6
CONTINUOUS
 10
104.232816
 20
235.214031
 40
6.000000
 50
30.000000
 51
150.000000
 39
3
 62
7
  0
LINE
  8
default
  6
CONTINUOUS
 10
139.739858
 20
185.714031
 11
109.428968
 21
238.214031
 39
3
 62
7
  0
ARC
  8
default
  6
CONTINUOUS
 10
73.921927
 20
182.714031
 40
6.000000
 50
150.000000
 51
270.000000
 39
3
 62
7
  0
CIRCLE
  8
default
  6
CONTINUOUS
 10
104.232816
 20
200.214031
 40
3.400000
 39
3
 62
7
  0
TEXT
  8
default
  6
CONTINUOUS
 10
81.121503
 20
185.259674
 40
8.000000
 50
0.000000
 72
1
  7
Normal#0.800000#4.800000
  1
6.5
 39
3
 62
7
  0
TEXT
  8
default
  6
CONTINUOUS
 10
127.248419
 20
185.040022
 40
8.000000
 50
0.000000
 72
1
  7
Normal#0.800000#4.800000
  1
6.5
 39
3
 62
7
  0
TEXT
  8
default
  6
CONTINUOUS
 10
109.236957
 20
222.380859
 40
8.000000
 50
0.000000
 72
1
  7
Normal#0.800000#4.800000
  1
6.5
 39
3
 62
7
  0
TEXT
  8
default
  6
CONTINUOUS
 10
110.994173
 20
203.710441
 40
8.000000
 50
0.000000
 72
1
  7
Normal#0.800000#4.800000
  1
6.8
 39
3
 62
7
  0
ARC
  8
default
  6
CONTINUOUS
 10
134.543705
 20
182.714031
 40
6.000000
 50
270.000000
 51
30.000000
 39
3
 62
7
  0
LINE
  8
default
  6
CONTINUOUS
 10
73.921927
 20
176.714031
 11
134.543705
 21
176.714031
 39
3
 62
7
  0
LINE
  8
default
  6
CONTINUOUS
 10
90.953759
 20
232.214031
 11
60.642870
 21
179.714031
 39
3
 62
7
  0
LINE
  8
default
  6
CONTINUOUS
 10
147.822762
 20
179.714031
 11
117.511873
 21
232.214031
 39
3
 62
7
  0
CIRCLE
  8
default
  6
CONTINUOUS
 10
85.757607
 20
235.214031
 40
3.250000
 39
3
 62
7
  0
CIRCLE
  8
default
  6
CONTINUOUS
 10
25.135829
 20
235.214031
 40
3.250000
 39
3
 62
7
  0
CIRCLE
  8
default
  6
CONTINUOUS
 10
55.446718
 20
182.714031
 40
3.250000
 39
3
 62
7
  0
LINE
  8
default
  6
CONTINUOUS
 10
50.250565
 20
179.714031
 11
19.939676
 21
232.214031
 39
3
 62
7
  0
ARC
  8
default
  6
CONTINUOUS
 10
55.446718
 20
182.714031
 40
6.000000
 50
210.000000
 51
330.000000
 39
3
 62
7
  0
ARC
  8
default
  6
CONTINUOUS
 10
85.757607
 20
235.214031
 40
6.000000
 50
330.000000
 51
90.000000
 39
3
 62
7
  0
LINE
  8
default
  6
CONTINUOUS
 10
25.135829
 20
241.214031
 11
85.757607
 21
241.214031
 39
3
 62
7
  0
ARC
  8
default
  6
CONTINUOUS
 10
25.135829
 20
235.214031
 40
6.000000
 50
90.000000
 51
210.000000
 39
3
 62
7
  0
TEXT
  8
default
  6
CONTINUOUS
 10
32.634702
 20
224.367874
 40
8.000000
 50
0.000000
 72
1
  7
Normal#0.800000#4.800000
  1
6.5
 39
3
 62
7
  0
TEXT
  8
default
  6
CONTINUOUS
 10
78.282152
 20
224.761386
 40
8.000000
 50
0.000000
 72
1
  7
Normal#0.800000#4.800000
  1
6.5
 39
3
 62
7
  0
TEXT
  8
default
  6
CONTINUOUS
 10
60.574090
 20
187.771212
 40
8.000000
 50
0.000000
 72
1
  7
Normal#0.800000#4.800000
  1
6.5
 39
3
 62
7
  0
TEXT
  8
default
  6
CONTINUOUS
 10
61.754627
 20
207.643593
 40
8.000000
 50
0.000000
 72
1
  7
Normal#0.800000#4.800000
  1
6.8
 39
3
 62
7
  0
CIRCLE
  8
default
  6
CONTINUOUS
 10
55.446718
 20
217.714031
 40
3.400000
 39
3
 62
7
  0
CIRCLE
  8
default
  6
CONTINUOUS
 10
183.329803
 20
235.214031
 40
3.250000
 39
3
 62
7
  0
CIRCLE
  8
default
  6
CONTINUOUS
 10
122.708025
 20
235.214031
 40
3.250000
 39
3
 62
7
  0
CIRCLE
  8
default
  6
CONTINUOUS
 10
153.018914
 20
182.714031
 40
3.250000
 39
3
 62
7
  0
ARC
  8
default
  6
CONTINUOUS
 10
153.018914
 20
182.714031
 40
6.000000
 50
210.000000
 51
330.000000
 39
3
 62
7
  0
LINE
  8
default
  6
CONTINUOUS
 10
188.525956
 20
232.214031
 11
158.215067
 21
179.714031
 39
3
 62
7
  0
ARC
  8
default
  6
CONTINUOUS
 10
183.329803
 20
235.214031
 40
6.000000
 50
330.000000
 51
90.000000
 39
3
 62
7
  0
LINE
  8
default
  6
CONTINUOUS
 10
122.708025
 20
241.214031
 11
183.329803
 21
241.214031
 39
3
 62
7
  0
ARC
  8
default
  6
CONTINUOUS
 10
122.708025
 20
235.214031
 40
6.000000
 50
90.000000
 51
210.000000
 39
3
 62
7
  0
TEXT
  8
default
  6
CONTINUOUS
 10
130.206899
 20
224.367874
 40
8.000000
 50
0.000000
 72
1
  7
Normal#0.800000#4.800000
  1
6.5
 39
3
 62
7
  0
TEXT
  8
default
  6
CONTINUOUS
 10
175.854348
 20
224.761386
 40
8.000000
 50
0.000000
 72
1
  7
Normal#0.800000#4.800000
  1
6.5
 39
3
 62
7
  0
TEXT
  8
default
  6
CONTINUOUS
 10
158.146286
 20
187.771212
 40
8.000000
 50
0.000000
 72
1
  7
Normal#0.800000#4.800000
  1
6.5
 39
3
 62
7
  0
TEXT
  8
default
  6
CONTINUOUS
 10
159.326823
 20
207.643593
 40
8.000000
 50
0.000000
 72
1
  7
Normal#0.800000#4.800000
  1
6.8
 39
3
 62
7
  0
CIRCLE
  8
default
  6
CONTINUOUS
 10
153.018914
 20
217.714031
 40
3.400000
 39
3
 62
7
  0
LINE
  8
default
  6
CONTINUOUS
 10
25.135829
 20
245.214031
 11
85.757607
 21
245.214031
 39
3
 62
7
  0
ARC
  8
default
  6
CONTINUOUS
 10
25.135829
 20
235.214031
 40
10.000000
 50
90.000000
 51
210.000000
 39
3
 62
7
  0
LINE
  8
default
  6
CONTINUOUS
 10
46.786463
 20
177.714031
 11
16.475574
 21
230.214031
 39
3
 62
7
  0
ARC
  8
default
  6
CONTINUOUS
 10
55.446718
 20
182.714031
 40
10.000000
 50
210.000000
 51
330.000000
 39
3
 62
7
  0
LINE
  8
default
  6
CONTINUOUS
 10
94.417861
 20
230.214031
 11
64.106972
 21
177.714031
 39
3
 62
7
  0
ARC
  8
default
  6
CONTINUOUS
 10
85.757607
 20
235.214031
 40
10.000000
 50
330.000000
 51
90.000000
 39
3
 62
7
  0
LINE
  8
default
  6
CONTINUOUS
 10
95.572562
 20
240.214031
 11
65.261672
 21
187.714031
 39
3
 62
7
  0
ARC
  8
default
  6
CONTINUOUS
 10
104.232816
 20
235.214031
 40
10.000000
 50
30.000000
 51
150.000000
 39
3
 62
7
  0
LINE
  8
default
  6
CONTINUOUS
 10
143.203960
 20
187.714031
 11
112.893070
 21
240.214031
 39
3
 62
7
  0
ARC
  8
default
  6
CONTINUOUS
 10
73.921927
 20
182.714031
 40
10.000000
 50
150.000000
 51
270.000000
 39
3
 62
7
  0
ARC
  8
default
  6
CONTINUOUS
 10
122.708025
 20
235.214031
 40
10.000000
 50
90.000000
 51
210.000000
 39
3
 62
7
  0
LINE
  8
default
  6
CONTINUOUS
 10
122.708025
 20
245.214031
 11
183.329803
 21
245.214031
 39
3
 62
7
  0
ARC
  8
default
  6
CONTINUOUS
 10
183.329803
 20
235.214031
 40
10.000000
 50
330.000000
 51
90.000000
 39
3
 62
7
  0
LINE
  8
default
  6
CONTINUOUS
 10
191.990058
 20
230.214031
 11
161.679169
 21
177.714031
 39
3
 62
7
  0
ARC
  8
default
  6
CONTINUOUS
 10
153.018914
 20
182.714031
 40
10.000000
 50
210.000000
 51
330.000000
 39
3
 62
7
  0
ARC
  8
default
  6
CONTINUOUS
 10
134.543705
 20
182.714031
 40
6.000000
 50
270.000000
 51
30.000000
 39
3
 62
7
  0
LINE
  8
default
  6
CONTINUOUS
 10
144.358660
 20
177.714031
 11
114.047771
 21
230.214031
 39
3
 62
7
  0
ARC
  8
default
  6
CONTINUOUS
 10
134.543705
 20
182.714031
 40
10.000000
 50
270.000000
 51
30.000000
 39
3
 62
7
  0
LINE
  8
default
  6
CONTINUOUS
 10
77.097353
 20
200.214031
 11
131.368279
 21
200.214031
 39
1
 62
7
  0
LINE
  8
default
  6
CONTINUOUS
 10
97.304613
 20
235.214031
 11
111.161019
 21
235.214031
 39
1
 62
7
  0
LINE
  8
default
  6
CONTINUOUS
 10
67.921927
 20
182.714031
 11
140.543705
 21
182.714031
 39
1
 62
7
  0
LINE
  8
default
  6
CONTINUOUS
 10
134.543705
 20
176.714031
 11
134.543705
 21
194.714031
 39
1
 62
7
  0
LINE
  8
default
  6
CONTINUOUS
 10
104.232816
 20
182.714031
 11
104.232816
 21
241.214031
 39
1
 62
7
  0
LINE
  8
default
  6
CONTINUOUS
 10
73.921927
 20
194.714031
 11
73.921927
 21
176.714031
 39
1
 62
7
  0
LINE
  8
default
  6
CONTINUOUS
 10
28.311255
 20
217.714031
 11
82.582180
 21
217.714031
 39
1
 62
7
  0
LINE
  8
default
  6
CONTINUOUS
 10
48.518515
 20
182.714031
 11
62.374921
 21
182.714031
 39
1
 62
7
  0
LINE
  8
default
  6
CONTINUOUS
 10
19.135829
 20
235.214031
 11
91.757607
 21
235.214031
 39
1
 62
7
  0
LINE
  8
default
  6
CONTINUOUS
 10
85.757607
 20
241.214031
 11
85.757607
 21
223.214031
 39
1
 62
7
  0
LINE
  8
default
  6
CONTINUOUS
 10
25.135829
 20
241.214031
 11
25.135829
 21
223.214031
 39
1
 62
7
  0
LINE
  8
default
  6
CONTINUOUS
 10
55.446718
 20
235.214031
 11
55.446718
 21
176.714031
 39
1
 62
7
  0
LINE
  8
default
  6
CONTINUOUS
 10
125.883452
 20
217.714031
 11
180.154377
 21
217.714031
 39
1
 62
7
  0
LINE
  8
default
  6
CONTINUOUS
 10
146.090711
 20
182.714031
 11
159.947117
 21
182.714031
 39
1
 62
7
  0
LINE
  8
default
  6
CONTINUOUS
 10
116.708025
 20
235.214031
 11
189.329803
 21
235.214031
 39
1
 62
7
  0
LINE
  8
default
  6
CONTINUOUS
 10
183.329803
 20
241.214031
 11
183.329803
 21
223.214031
 39
1
 62
7
  0
LINE
  8
default
  6
CONTINUOUS
 10
122.708025
 20
241.214031
 11
122.708025
 21
223.214031
 39
1
 62
7
  0
LINE
  8
default
  6
CONTINUOUS
 10
153.018914
 20
235.214031
 11
153.018914
 21
176.714031
 39
1
 62
7
  0
LINE
  8
default
  6
CONTINUOUS
 10
190.258007
 20
231.214031
 11
159.947118
 21
178.714031
 39
1
 62
7
  0
ARC
  8
default
  6
CONTINUOUS
 10
183.329803
 20
235.214031
 40
8.000000
 50
330.000000
 51
90.000000
 39
1
 62
7
  0
LINE
  8
default
  6
CONTINUOUS
 10
122.708025
 20
243.214031
 11
183.329803
 21
243.214031
 39
1
 62
7
  0
ARC
  8
default
  6
CONTINUOUS
 10
122.708025
 20
235.214031
 40
8.000000
 50
90.000000
 51
210.000000
 39
1
 62
7
  0
LINE
  8
default
  6
CONTINUOUS
 10
141.471909
 20
186.714031
 11
111.161019
 21
239.214031
 39
1
 62
7
  0
ARC
  8
default
  6
CONTINUOUS
 10
134.543705
 20
182.714031
 40
8.000000
 50
270.000000
 51
30.000000
 39
1
 62
7
  0
LINE
  8
default
  6
CONTINUOUS
 10
146.090711
 20
178.714031
 11
115.779822
 21
231.214031
 39
1
 62
7
  0
ARC
  8
default
  6
CONTINUOUS
 10
153.018914
 20
182.714031
 40
8.000000
 50
210.000000
 51
330.000000
 39
1
 62
7
  0
ARC
  8
default
  6
CONTINUOUS
 10
73.921927
 20
182.714031
 40
8.000000
 50
150.000000
 51
270.000000
 39
1
 62
7
  0
LINE
  8
default
  6
CONTINUOUS
 10
97.304613
 20
239.214031
 11
66.993723
 21
186.714031
 39
1
 62
7
  0
ARC
  8
default
  6
CONTINUOUS
 10
104.232816
 20
235.214031
 40
8.000000
 50
30.000000
 51
150.000000
 39
1
 62
7
  0
ARC
  8
default
  6
CONTINUOUS
 10
85.757607
 20
235.214031
 40
8.000000
 50
330.000000
 51
90.000000
 39
1
 62
7
  0
LINE
  8
default
  6
CONTINUOUS
 10
25.135829
 20
243.214031
 11
85.757607
 21
243.214031
 39
1
 62
7
  0
ARC
  8
default
  6
CONTINUOUS
 10
25.135829
 20
235.214031
 40
8.000000
 50
90.000000
 51
210.000000
 39
1
 62
7
  0
LINE
  8
default
  6
CONTINUOUS
 10
48.518514
 20
178.714031
 11
18.207625
 21
231.214031
 39
1
 62
7
  0
ARC
  8
default
  6
CONTINUOUS
 10
55.446718
 20
182.714031
 40
8.000000
 50
210.000000
 51
330.000000
 39
1
 62
7
  0
LINE
  8
default
  6
CONTINUOUS
 10
73.921927
 20
174.714031
 11
134.543705
 21
174.714031
 39
1
 62
7
  0
LINE
  8
default
  6
CONTINUOUS
 10
92.685810
 20
231.214031
 11
62.374921
 21
178.714031
 39
1
 62
7
  0
LINE
  8
contour
  6
CONTINUOUS
 10
73.921927
 20
172.714031
 11
134.543705
 21
172.714031
 39
3
 62
7
  0
TEXT
  8
contour
  6
CONTINUOUS
 10
39.125749
 20
206.299401
 40
5.000000
 50
0.000000
 72
0
  7
Normal#0.500000#3.000000
  1
6mm
 39
3
 62
7
  0
TEXT
  8
contour
  6
CONTINUOUS
 10
105.639521
 20
183.891018
 40
5.000000
 50
0.000000
 72
0
  7
Normal#0.500000#3.000000
  1
6mm
 39
3
 62
7
  0
TEXT
  8
contour
  6
CONTINUOUS
 10
138.362874
 20
201.319760
 40
5.000000
 50
0.000000
 72
0
  7
Normal#0.500000#3.000000
  1
6mm
 39
3
 62
7
  0
ENDSEC
  0
EOF
