  0
SECTION
  2
HEADER
  9
$LIMMIN
 10
0.000000
 20
0.000000
  9
$LIMMAX
 10
174.000000
 20
285.000000
  9
$EXTMIN
 10
0.000000
 20
0.000000
  9
$EXTMAX
 10
174.000000
 20
285.000000
  9
$ANGBASE
 50
0.000000
  9
$ANGDIR
 70
0
  9
$INSUNITS
 70
4
  9
$DIMALT
 70
4
  9
$DIMLUNIT
 70
2
  9
$DIMASZ
 40
3.000000
  9
$DIMTXT
 40
5.000000
  9
$DIMRND
 40
0.010000
  9
$DIMEXE
 40
2.000000
  9
$DIMEXO
 40
2.000000
  9
$DIMAUNIT
 70
0
  9
$DIMADEC
 70
2
  9
$GRIDUNIT
 10
0.001000
 20
0.001000
  9
$PLIMMIN
 10
0.000000
 20
0.000000
  9
$PLIMMAX
 10
210.000000
 20
297.000000
  9
$PSVPSCALE
 40
1.000000
  0
ENDSEC
  0
SECTION
  2
TABLES
  0
TABLE
  2
LTYPE
 70
     1
  0
LTYPE
  2
CONTINUOUS
 70
    64
  3
Ausgez
 72
    65
 73
  0
 40
0.000000
  0
ENDTAB
  0
TABLE
  2
LAYER
 70
     1
  0
LAYER
  2
default
 70
    64
 62
7
  6
CONTINUOUS
  0
LAYER
  2
contour
 70
    64
 62
7
  6
CONTINUOUS
  0
LAYER
  2
axes
 70
    64
 62
7
  6
DASHDOT
  0
LAYER
  2
text
 70
    64
 62
7
  6
CONTINUOUS
  0
ENDTAB
  0
ENDSEC
  0
SECTION
  2
BLOCKS
  0
ENDSEC
  0
SECTION
  2
ENTITIES
  0
LINE
  8
contour
  6
CONTINUOUS
 10
50.000000
 20
285.000000
 11
72.000000
 21
285.000000
 39
3
 62
7
  0
LINE
  8
contour
  6
CONTINUOUS
 10
72.000000
 20
285.000000
 11
72.000000
 21
13.000000
 39
3
 62
7
  0
LINE
  8
contour
  6
CONTINUOUS
 10
72.000000
 20
13.000000
 11
50.000000
 21
13.000000
 39
3
 62
7
  0
LINE
  8
contour
  6
CONTINUOUS
 10
50.000000
 20
13.000000
 11
50.000000
 21
285.000000
 39
3
 62
7
  0
LINE
  8
axes
  6
DASHDOT
 10
61.000000
 20
285.000000
 11
61.000000
 21
13.000000
 39
1
 62
7
  0
LINE
  8
contour
  6
CONTINUOUS
 10
174.000000
 20
136.000000
 11
155.000000
 21
136.000000
 39
3
 62
7
  0
LINE
  8
axes
  6
DASHDOT
 10
155.000000
 20
230.000000
 11
174.000000
 21
230.000000
 39
1
 62
7
  0
LINE
  8
axes
  6
DASHDOT
 10
174.000000
 20
146.000000
 11
155.000000
 21
146.000000
 39
1
 62
7
  0
LINE
  8
axes
  6
DASHDOT
 10
155.000000
 20
209.000000
 11
174.000000
 21
209.000000
 39
1
 62
7
  0
LINE
  8
axes
  6
DASHDOT
 10
155.000000
 20
188.000000
 11
174.000000
 21
188.000000
 39
1
 62
7
  0
LINE
  8
axes
  6
DASHDOT
 10
155.000000
 20
167.000000
 11
174.000000
 21
167.000000
 39
1
 62
7
  0
CIRCLE
  8
contour
  6
CONTINUOUS
 10
164.500000
 20
230.000000
 40
1.650000
 39
3
 62
7
  0
CIRCLE
  8
contour
  6
CONTINUOUS
 10
164.500000
 20
146.000000
 40
1.650000
 39
3
 62
7
  0
TEXT
  8
contour
  6
CONTINUOUS
 10
166.783465
 20
222.165354
 40
5.000000
 50
0.000000
 72
0
  7
Normal#0.500000#3.000000
  1
3.3
 39
3
 62
7
  0
TEXT
  8
contour
  6
CONTINUOUS
 10
167.173228
 20
149.669291
 40
5.000000
 50
0.000000
 72
0
  7
Normal#0.500000#3.000000
  1
3.3
 39
3
 62
7
  0
LINE
  8
contour
  6
CONTINUOUS
 10
155.000000
 20
240.000000
 11
174.000000
 21
240.000000
 39
3
 62
7
  0
LINE
  8
contour
  6
CONTINUOUS
 10
155.000000
 20
136.000000
 11
155.000000
 21
240.000000
 39
3
 62
7
  0
LINE
  8
axes
  6
DASHDOT
 10
164.500000
 20
240.000000
 11
164.500000
 21
136.000000
 39
1
 62
7
  0
LINE
  8
contour
  6
CONTINUOUS
 10
174.000000
 20
240.000000
 11
174.000000
 21
136.000000
 39
3
 62
7
  0
CIRCLE
  8
contour
  6
CONTINUOUS
 10
164.500000
 20
209.000000
 40
5.000000
 39
3
 62
7
  0
CIRCLE
  8
contour
  6
CONTINUOUS
 10
164.500000
 20
188.000000
 40
5.000000
 39
3
 62
7
  0
CIRCLE
  8
contour
  6
CONTINUOUS
 10
164.500000
 20
167.000000
 40
5.000000
 39
3
 62
7
  0
TEXT
  8
contour
  6
CONTINUOUS
 10
168.001085
 20
198.369304
 40
5.000000
 50
0.000000
 72
0
  7
Normal#0.500000#3.000000
  1
10
 39
3
 62
7
  0
TEXT
  8
contour
  6
CONTINUOUS
 10
168.216938
 20
176.568107
 40
5.000000
 50
0.000000
 72
0
  7
Normal#0.500000#3.000000
  1
10
 39
3
 62
7
  0
TEXT
  8
contour
  6
CONTINUOUS
 10
157.640120
 20
156.277885
 40
5.000000
 50
0.000000
 72
0
  7
Normal#0.500000#3.000000
  1
10
 39
3
 62
7
  0
LINE
  8
axes
  6
DASHDOT
 10
50.000000
 20
275.000000
 11
72.000000
 21
275.000000
 39
1
 62
7
  0
LINE
  8
axes
  6
DASHDOT
 10
50.000000
 20
235.000000
 11
72.000000
 21
235.000000
 39
1
 62
7
  0
LINE
  8
axes
  6
DASHDOT
 10
50.000000
 20
195.000000
 11
72.000000
 21
195.000000
 39
1
 62
7
  0
LINE
  8
axes
  6
DASHDOT
 10
50.000000
 20
155.000000
 11
72.000000
 21
155.000000
 39
1
 62
7
  0
LINE
  8
axes
  6
DASHDOT
 10
50.000000
 20
195.000000
 11
72.000000
 21
195.000000
 39
1
 62
7
  0
LINE
  8
axes
  6
DASHDOT
 10
50.000000
 20
115.000000
 11
72.000000
 21
115.000000
 39
1
 62
7
  0
LINE
  8
axes
  6
DASHDOT
 10
50.000000
 20
75.000000
 11
72.000000
 21
75.000000
 39
1
 62
7
  0
CIRCLE
  8
contour
  6
CONTINUOUS
 10
61.000000
 20
275.000000
 40
3.200000
 39
3
 62
7
  0
CIRCLE
  8
contour
  6
CONTINUOUS
 10
61.000000
 20
235.000000
 40
3.200000
 39
3
 62
7
  0
CIRCLE
  8
contour
  6
CONTINUOUS
 10
61.000000
 20
195.000000
 40
3.200000
 39
3
 62
7
  0
CIRCLE
  8
contour
  6
CONTINUOUS
 10
61.000000
 20
155.000000
 40
3.200000
 39
3
 62
7
  0
CIRCLE
  8
contour
  6
CONTINUOUS
 10
61.000000
 20
115.000000
 40
3.200000
 39
3
 62
7
  0
CIRCLE
  8
contour
  6
CONTINUOUS
 10
61.000000
 20
75.000000
 40
3.200000
 39
3
 62
7
  0
TEXT
  8
text
  6
CONTINUOUS
 10
63.775591
 20
242.811024
 40
5.000000
 50
0.000000
 72
0
  7
Normal#0.500000#3.000000
  1
6.4
 39
3
 62
7
  0
TEXT
  8
text
  6
CONTINUOUS
 10
63.385827
 20
200.326772
 40
5.000000
 50
0.000000
 72
0
  7
Normal#0.500000#3.000000
  1
6.4
 39
3
 62
7
  0
TEXT
  8
text
  6
CONTINUOUS
 10
63.385827
 20
160.570866
 40
5.000000
 50
0.000000
 72
0
  7
Normal#0.500000#3.000000
  1
6.4
 39
3
 62
7
  0
TEXT
  8
text
  6
CONTINUOUS
 10
62.996063
 20
121.204724
 40
5.000000
 50
0.000000
 72
0
  7
Normal#0.500000#3.000000
  1
6.4
 39
3
 62
7
  0
TEXT
  8
text
  6
CONTINUOUS
 10
62.606299
 20
81.059055
 40
5.000000
 50
0.000000
 72
0
  7
Normal#0.500000#3.000000
  1
6.4
 39
3
 62
7
  0
TEXT
  8
text
  6
CONTINUOUS
 10
63.779162
 20
265.619873
 40
5.000000
 50
0.000000
 72
0
  7
Normal#0.500000#3.000000
  1
6.4
 39
3
 62
7
  0
LINE
  8
axes
  6
DASHDOT
 10
50.000000
 20
35.000000
 11
72.000000
 21
35.000000
 39
1
 62
7
  0
CIRCLE
  8
contour
  6
CONTINUOUS
 10
61.000000
 20
35.000000
 40
3.200000
 39
3
 62
7
  0
TEXT
  8
contour
  6
CONTINUOUS
 10
62.761366
 20
40.349694
 40
5.000000
 50
0.000000
 72
0
  7
Normal#0.500000#3.000000
  1
6.4
 39
3
 62
7
  0
LINE
  8
contour
  6
CONTINUOUS
 10
80.000000
 20
265.000000
 11
99.000000
 21
265.000000
 39
3
 62
7
  0
LINE
  8
contour
  6
CONTINUOUS
 10
99.000000
 20
265.000000
 11
99.000000
 21
136.000000
 39
3
 62
7
  0
LINE
  8
contour
  6
CONTINUOUS
 10
99.000000
 20
136.000000
 11
80.000000
 21
136.000000
 39
3
 62
7
  0
LINE
  8
contour
  6
CONTINUOUS
 10
80.000000
 20
136.000000
 11
80.000000
 21
265.000000
 39
3
 62
7
  0
LINE
  8
axes
  6
DASHDOT
 10
89.500000
 20
265.000000
 11
89.500000
 21
136.000000
 39
1
 62
7
  0
LINE
  8
axes
  6
DASHDOT
 10
80.000000
 20
230.000000
 11
99.000000
 21
230.000000
 39
1
 62
7
  0
LINE
  8
axes
  6
DASHDOT
 10
99.000000
 20
146.000000
 11
80.000000
 21
146.000000
 39
1
 62
7
  0
LINE
  8
axes
  6
DASHDOT
 10
80.000000
 20
209.000000
 11
99.000000
 21
209.000000
 39
1
 62
7
  0
LINE
  8
axes
  6
DASHDOT
 10
80.000000
 20
188.000000
 11
99.000000
 21
188.000000
 39
1
 62
7
  0
LINE
  8
axes
  6
DASHDOT
 10
80.000000
 20
167.000000
 11
99.000000
 21
167.000000
 39
1
 62
7
  0
CIRCLE
  8
contour
  6
CONTINUOUS
 10
89.500000
 20
230.000000
 40
1.650000
 39
3
 62
7
  0
CIRCLE
  8
contour
  6
CONTINUOUS
 10
89.500000
 20
146.000000
 40
1.650000
 39
3
 62
7
  0
TEXT
  8
contour
  6
CONTINUOUS
 10
91.783465
 20
222.165354
 40
5.000000
 50
0.000000
 72
0
  7
Normal#0.500000#3.000000
  1
3.3
 39
3
 62
7
  0
TEXT
  8
contour
  6
CONTINUOUS
 10
92.173228
 20
149.669291
 40
5.000000
 50
0.000000
 72
0
  7
Normal#0.500000#3.000000
  1
3.3
 39
3
 62
7
  0
CIRCLE
  8
contour
  6
CONTINUOUS
 10
89.500000
 20
209.000000
 40
2.000000
 39
3
 62
7
  0
TEXT
  8
contour
  6
CONTINUOUS
 10
92.562992
 20
201.118110
 40
5.000000
 50
0.000000
 72
0
  7
Normal#0.500000#3.000000
  1
4
 39
3
 62
7
  0
CIRCLE
  8
contour
  6
CONTINUOUS
 10
89.500000
 20
188.000000
 40
2.550000
 39
3
 62
7
  0
CIRCLE
  8
contour
  6
CONTINUOUS
 10
89.500000
 20
167.000000
 40
2.550000
 39
3
 62
7
  0
TEXT
  8
contour
  6
CONTINUOUS
 10
92.562992
 20
178.901575
 40
5.000000
 50
0.000000
 72
0
  7
Normal#0.500000#3.000000
  1
5.1
 39
3
 62
7
  0
TEXT
  8
contour
  6
CONTINUOUS
 10
92.562992
 20
170.326772
 40
5.000000
 50
0.000000
 72
0
  7
Normal#0.500000#3.000000
  1
5.1
 39
3
 62
7
  0
LINE
  8
axes
  6
DASHDOT
 10
80.000000
 20
255.500000
 11
99.000000
 21
255.500000
 39
1
 62
7
  0
CIRCLE
  8
contour
  6
CONTINUOUS
 10
89.500000
 20
255.500000
 40
3.200000
 39
3
 62
7
  0
TEXT
  8
text
  6
CONTINUOUS
 10
91.992560
 20
245.857059
 40
5.000000
 50
0.000000
 72
0
  7
Normal#0.500000#3.000000
  1
6.4
 39
3
 62
7
  0
LINE
  8
contour
  6
CONTINUOUS
 10
134.000000
 20
136.000000
 11
115.000000
 21
136.000000
 39
3
 62
7
  0
LINE
  8
axes
  6
DASHDOT
 10
115.000000
 20
230.000000
 11
134.000000
 21
230.000000
 39
1
 62
7
  0
LINE
  8
axes
  6
DASHDOT
 10
134.000000
 20
146.000000
 11
115.000000
 21
146.000000
 39
1
 62
7
  0
CIRCLE
  8
contour
  6
CONTINUOUS
 10
124.500000
 20
230.000000
 40
1.650000
 39
3
 62
7
  0
CIRCLE
  8
contour
  6
CONTINUOUS
 10
124.500000
 20
146.000000
 40
1.650000
 39
3
 62
7
  0
TEXT
  8
contour
  6
CONTINUOUS
 10
126.783465
 20
222.165354
 40
5.000000
 50
0.000000
 72
0
  7
Normal#0.500000#3.000000
  1
3.3
 39
3
 62
7
  0
TEXT
  8
contour
  6
CONTINUOUS
 10
127.173228
 20
149.669291
 40
5.000000
 50
0.000000
 72
0
  7
Normal#0.500000#3.000000
  1
3.3
 39
3
 62
7
  0
LINE
  8
contour
  6
CONTINUOUS
 10
115.000000
 20
240.000000
 11
134.000000
 21
240.000000
 39
3
 62
7
  0
LINE
  8
contour
  6
CONTINUOUS
 10
115.000000
 20
136.000000
 11
115.000000
 21
240.000000
 39
3
 62
7
  0
LINE
  8
axes
  6
DASHDOT
 10
124.500000
 20
240.000000
 11
124.500000
 21
136.000000
 39
1
 62
7
  0
LINE
  8
contour
  6
CONTINUOUS
 10
134.000000
 20
240.000000
 11
134.000000
 21
136.000000
 39
3
 62
7
  0
TEXT
  8
default
  6
CONTINUOUS
 10
120.758242
 20
90.840659
 40
5.000000
 50
0.000000
 72
1
  7
Normal#0.500000#3.000000
  1
1-2mm aluminium
 39
3
 62
7
  0
TEXT
  8
default
  6
CONTINUOUS
 10
120.758242
 20
83.840659
 40
5.000000
 50
0.000000
 72
1
  7
Normal#0.500000#3.000000
  1
or steel
 39
3
 62
7
  0
ENDSEC
  0
EOF
