  0
SECTION
  2
HEADER
  9
$LIMMIN
 10
0.000000
 20
0.000000
  9
$LIMMAX
 10
195.000000
 20
280.000000
  9
$EXTMIN
 10
0.000000
 20
0.000000
  9
$EXTMAX
 10
195.000000
 20
280.000000
  9
$ANGBASE
 50
0.000000
  9
$ANGDIR
 70
0
  9
$INSUNITS
 70
4
  9
$DIMALT
 70
4
  9
$DIMLUNIT
 70
2
  9
$DIMASZ
 40
2.500000
  9
$DIMTXT
 40
2.500000
  9
$DIMRND
 40
0.010000
  9
$DIMEXE
 40
1.250000
  9
$DIMEXO
 40
0.625000
  9
$DIMAUNIT
 70
0
  9
$DIMADEC
 70
2
  9
$GRIDUNIT
 10
0.001000
 20
20.000000
  9
$PLIMMIN
 10
0.000000
 20
0.000000
  9
$PLIMMAX
 10
210.000000
 20
297.000000
  9
$PSVPSCALE
 40
1.000000
  0
ENDSEC
  0
SECTION
  2
TABLES
  0
TABLE
  2
LTYPE
 70
     1
  0
LTYPE
  2
CONTINUOUS
 70
    64
  3
Ausgez
 72
    65
 73
  0
 40
0.000000
  0
ENDTAB
  0
TABLE
  2
LAYER
 70
     1
  0
LAYER
  2
contour
 70
    64
 62
7
  6
CONTINUOUS
  0
LAYER
  2
helper
 70
    64
 62
7
  6
CONTINUOUS
  0
LAYER
  2
bend
 70
    64
 62
7
  6
DASH
  0
ENDTAB
  0
ENDSEC
  0
SECTION
  2
BLOCKS
  0
ENDSEC
  0
SECTION
  2
ENTITIES
  0
LINE
  8
bend
  6
DASH
 10
40.000000
 20
60.000000
 11
40.000000
 21
280.000000
 39
2
 62
7
  0
LINE
  8
bend
  6
DASH
 10
65.000000
 20
100.000000
 11
65.000000
 21
280.000000
 39
2
 62
7
  0
LINE
  8
bend
  6
DASH
 10
144.000000
 20
90.000000
 11
144.000000
 21
220.000000
 39
2
 62
7
  0
LINE
  8
bend
  6
DASH
 10
169.000000
 20
90.000000
 11
169.000000
 21
260.000000
 39
2
 62
7
  0
LINE
  8
contour
  6
CONTINUOUS
 10
90.000000
 20
280.000000
 11
65.000000
 21
280.000000
 39
3
 62
7
  0
LINE
  8
contour
  6
CONTINUOUS
 10
65.000000
 20
280.000000
 11
40.000000
 21
280.000000
 39
3
 62
7
  0
LINE
  8
contour
  6
CONTINUOUS
 10
40.000000
 20
280.000000
 11
15.000000
 21
280.000000
 39
3
 62
7
  0
CIRCLE
  8
contour
  6
CONTINUOUS
 10
52.500000
 20
270.000000
 40
5.250000
 39
3
 62
7
  0
LINE
  8
contour
  6
CONTINUOUS
 10
15.000000
 20
280.000000
 11
15.000000
 21
60.000000
 39
3
 62
7
  0
LINE
  8
contour
  6
CONTINUOUS
 10
90.000000
 20
100.000000
 11
90.000000
 21
280.000000
 39
3
 62
7
  0
LINE
  8
contour
  6
CONTINUOUS
 10
95.000000
 20
280.000000
 11
115.000000
 21
280.000000
 39
3
 62
7
  0
LINE
  8
contour
  6
CONTINUOUS
 10
95.000000
 20
60.000000
 11
95.000000
 21
280.000000
 39
3
 62
7
  0
LINE
  8
contour
  6
CONTINUOUS
 10
115.000000
 20
280.000000
 11
115.000000
 21
100.000000
 39
3
 62
7
  0
LINE
  8
contour
  6
CONTINUOUS
 10
169.000000
 20
90.000000
 11
194.000000
 21
90.000000
 39
3
 62
7
  0
LINE
  8
contour
  6
CONTINUOUS
 10
144.000000
 20
90.000000
 11
169.000000
 21
90.000000
 39
3
 62
7
  0
LINE
  8
contour
  6
CONTINUOUS
 10
119.000000
 20
90.000000
 11
144.000000
 21
90.000000
 39
3
 62
7
  0
CIRCLE
  8
contour
  6
CONTINUOUS
 10
156.500000
 20
100.000000
 40
5.250000
 39
3
 62
7
  0
LINE
  8
contour
  6
CONTINUOUS
 10
119.000000
 20
220.000000
 11
119.000000
 21
90.000000
 39
3
 62
7
  0
LINE
  8
contour
  6
CONTINUOUS
 10
194.000000
 20
90.000000
 11
194.000000
 21
260.000000
 39
3
 62
7
  0
LINE
  8
contour
  6
CONTINUOUS
 10
25.000000
 20
30.000000
 11
25.000000
 21
50.000000
 39
3
 62
7
  0
LINE
  8
contour
  6
CONTINUOUS
 10
25.000000
 20
50.000000
 11
155.000000
 21
50.000000
 39
3
 62
7
  0
LINE
  8
contour
  6
CONTINUOUS
 10
195.000000
 20
30.000000
 11
25.000000
 21
30.000000
 39
3
 62
7
  0
CIRCLE
  8
contour
  6
CONTINUOUS
 10
26.500000
 20
245.000000
 40
3.500000
 39
3
 62
7
  0
CIRCLE
  8
contour
  6
CONTINUOUS
 10
26.500000
 20
175.000000
 40
3.500000
 39
3
 62
7
  0
CIRCLE
  8
contour
  6
CONTINUOUS
 10
78.500000
 20
195.000000
 40
3.500000
 39
3
 62
7
  0
CIRCLE
  8
contour
  6
CONTINUOUS
 10
78.500000
 20
135.000000
 40
3.500000
 39
3
 62
7
  0
CIRCLE
  8
contour
  6
CONTINUOUS
 10
26.500000
 20
105.000000
 40
3.500000
 39
3
 62
7
  0
CIRCLE
  8
contour
  6
CONTINUOUS
 10
105.000000
 20
105.000000
 40
3.500000
 39
3
 62
7
  0
CIRCLE
  8
contour
  6
CONTINUOUS
 10
105.000000
 20
175.000000
 40
3.500000
 39
3
 62
7
  0
CIRCLE
  8
contour
  6
CONTINUOUS
 10
105.000000
 20
245.000000
 40
3.500000
 39
3
 62
7
  0
CIRCLE
  8
contour
  6
CONTINUOUS
 10
182.500000
 20
235.000000
 40
3.500000
 39
3
 62
7
  0
CIRCLE
  8
contour
  6
CONTINUOUS
 10
182.500000
 20
175.000000
 40
3.500000
 39
3
 62
7
  0
CIRCLE
  8
contour
  6
CONTINUOUS
 10
130.500000
 20
195.000000
 40
3.500000
 39
3
 62
7
  0
CIRCLE
  8
contour
  6
CONTINUOUS
 10
130.500000
 20
125.000000
 40
3.500000
 39
3
 62
7
  0
CIRCLE
  8
contour
  6
CONTINUOUS
 10
60.000000
 20
40.000000
 40
3.500000
 39
3
 62
7
  0
CIRCLE
  8
contour
  6
CONTINUOUS
 10
60.000000
 20
40.000000
 40
3.500000
 39
3
 62
7
  0
CIRCLE
  8
contour
  6
CONTINUOUS
 10
130.000000
 20
40.000000
 40
3.500000
 39
3
 62
7
  0
LINE
  8
helper
  6
CONTINUOUS
 10
65.000000
 20
270.000000
 11
40.000000
 21
270.000000
 39
1
 62
7
  0
LINE
  8
helper
  6
CONTINUOUS
 10
40.000000
 20
245.000000
 11
15.000000
 21
245.000000
 39
1
 62
7
  0
LINE
  8
helper
  6
CONTINUOUS
 10
40.000000
 20
175.000000
 11
15.000000
 21
175.000000
 39
1
 62
7
  0
LINE
  8
helper
  6
CONTINUOUS
 10
40.000000
 20
105.000000
 11
15.000000
 21
105.000000
 39
1
 62
7
  0
LINE
  8
helper
  6
CONTINUOUS
 10
15.000000
 20
60.000000
 11
52.500000
 21
60.000000
 39
1
 62
7
  0
LINE
  8
helper
  6
CONTINUOUS
 10
52.500000
 20
100.000000
 11
90.000000
 21
100.000000
 39
1
 62
7
  0
LINE
  8
helper
  6
CONTINUOUS
 10
26.500000
 20
60.000000
 11
26.500000
 21
280.000000
 39
1
 62
7
  0
LINE
  8
helper
  6
CONTINUOUS
 10
52.500000
 20
60.000000
 11
52.500000
 21
280.000000
 39
1
 62
7
  0
LINE
  8
helper
  6
CONTINUOUS
 10
115.000000
 20
245.000000
 11
95.000000
 21
245.000000
 39
1
 62
7
  0
LINE
  8
helper
  6
CONTINUOUS
 10
115.000000
 20
175.000000
 11
95.000000
 21
175.000000
 39
1
 62
7
  0
LINE
  8
helper
  6
CONTINUOUS
 10
115.000000
 20
105.000000
 11
95.000000
 21
105.000000
 39
1
 62
7
  0
LINE
  8
helper
  6
CONTINUOUS
 10
95.000000
 20
60.000000
 11
105.000000
 21
60.000000
 39
1
 62
7
  0
LINE
  8
helper
  6
CONTINUOUS
 10
105.000000
 20
100.000000
 11
115.000000
 21
100.000000
 39
1
 62
7
  0
LINE
  8
helper
  6
CONTINUOUS
 10
105.000000
 20
60.000000
 11
105.000000
 21
280.000000
 39
1
 62
7
  0
LINE
  8
helper
  6
CONTINUOUS
 10
95.000000
 20
80.000000
 11
105.000000
 21
80.000000
 39
1
 62
7
  0
LINE
  8
helper
  6
CONTINUOUS
 10
169.000000
 20
100.000000
 11
144.000000
 21
100.000000
 39
1
 62
7
  0
LINE
  8
helper
  6
CONTINUOUS
 10
144.000000
 20
195.000000
 11
119.000000
 21
195.000000
 39
1
 62
7
  0
LINE
  8
helper
  6
CONTINUOUS
 10
144.000000
 20
125.000000
 11
119.000000
 21
125.000000
 39
1
 62
7
  0
LINE
  8
helper
  6
CONTINUOUS
 10
119.000000
 20
220.000000
 11
156.500000
 21
220.000000
 39
1
 62
7
  0
LINE
  8
helper
  6
CONTINUOUS
 10
156.500000
 20
260.000000
 11
194.000000
 21
260.000000
 39
1
 62
7
  0
LINE
  8
helper
  6
CONTINUOUS
 10
130.500000
 20
90.000000
 11
130.500000
 21
220.000000
 39
1
 62
7
  0
LINE
  8
helper
  6
CONTINUOUS
 10
156.500000
 20
90.000000
 11
156.500000
 21
260.000000
 39
1
 62
7
  0
LINE
  8
helper
  6
CONTINUOUS
 10
130.000000
 20
30.000000
 11
130.000000
 21
50.000000
 39
1
 62
7
  0
LINE
  8
helper
  6
CONTINUOUS
 10
60.000000
 20
30.000000
 11
60.000000
 21
50.000000
 39
1
 62
7
  0
LINE
  8
helper
  6
CONTINUOUS
 10
155.000000
 20
50.000000
 11
155.000000
 21
40.000000
 39
1
 62
7
  0
LINE
  8
helper
  6
CONTINUOUS
 10
195.000000
 20
40.000000
 11
195.000000
 21
30.000000
 39
1
 62
7
  0
LINE
  8
helper
  6
CONTINUOUS
 10
25.000000
 20
40.000000
 11
195.000000
 21
40.000000
 39
1
 62
7
  0
LINE
  8
helper
  6
CONTINUOUS
 10
175.000000
 20
40.000000
 11
175.000000
 21
30.000000
 39
1
 62
7
  0
LINE
  8
helper
  6
CONTINUOUS
 10
78.500000
 20
100.000000
 11
78.500000
 21
280.000000
 39
1
 62
7
  0
LINE
  8
helper
  6
CONTINUOUS
 10
182.500000
 20
90.000000
 11
182.500000
 21
260.000000
 39
1
 62
7
  0
LINE
  8
helper
  6
CONTINUOUS
 10
90.000000
 20
195.000000
 11
65.000000
 21
195.000000
 39
1
 62
7
  0
LINE
  8
helper
  6
CONTINUOUS
 10
90.000000
 20
135.000000
 11
65.000000
 21
135.000000
 39
1
 62
7
  0
LINE
  8
helper
  6
CONTINUOUS
 10
90.000000
 20
135.000000
 11
65.000000
 21
135.000000
 39
1
 62
7
  0
LINE
  8
helper
  6
CONTINUOUS
 10
169.000000
 20
235.000000
 11
194.000000
 21
235.000000
 39
1
 62
7
  0
LINE
  8
helper
  6
CONTINUOUS
 10
169.000000
 20
175.000000
 11
194.000000
 21
175.000000
 39
1
 62
7
  0
LINE
  8
helper
  6
CONTINUOUS
 10
156.500000
 20
240.000000
 11
169.000000
 21
240.000000
 39
1
 62
7
  0
LINE
  8
helper
  6
CONTINUOUS
 10
40.000000
 20
80.000000
 11
52.500000
 21
80.000000
 39
1
 62
7
  0
TEXT
  8
contour
  6
CONTINUOUS
 10
63.325541
 20
32.161385
 40
5.000000
 50
0.000000
 72
0
  7
Normal#0.500000#3.000000
  1
7.0
 39
3
 62
7
  0
TEXT
  8
contour
  6
CONTINUOUS
 10
134.472549
 20
32.161385
 40
5.000000
 50
0.000000
 72
0
  7
Normal#0.500000#3.000000
  1
7.0
 39
3
 62
7
  0
TEXT
  8
contour
  6
CONTINUOUS
 10
34.397637
 20
109.823686
 40
5.000000
 50
90.000000
 72
0
  7
Normal#0.500000#3.000000
  1
7.0
 39
3
 62
7
  0
TEXT
  8
contour
  6
CONTINUOUS
 10
33.355190
 20
180.449470
 40
5.000000
 50
90.000000
 72
0
  7
Normal#0.500000#3.000000
  1
7.0
 39
3
 62
7
  0
TEXT
  8
contour
  6
CONTINUOUS
 10
85.998763
 20
139.272813
 40
5.000000
 50
90.000000
 72
0
  7
Normal#0.500000#3.000000
  1
7.0
 39
3
 62
7
  0
TEXT
  8
contour
  6
CONTINUOUS
 10
85.998763
 20
198.431680
 40
5.000000
 50
90.000000
 72
0
  7
Normal#0.500000#3.000000
  1
7.0
 39
3
 62
7
  0
TEXT
  8
contour
  6
CONTINUOUS
 10
138.121113
 20
199.734739
 40
5.000000
 50
90.000000
 72
0
  7
Normal#0.500000#3.000000
  1
7.0
 39
3
 62
7
  0
TEXT
  8
contour
  6
CONTINUOUS
 10
137.860501
 20
130.151402
 40
5.000000
 50
90.000000
 72
0
  7
Normal#0.500000#3.000000
  1
7.0
 39
3
 62
7
  0
TEXT
  8
contour
  6
CONTINUOUS
 10
190.243463
 20
179.667635
 40
5.000000
 50
90.000000
 72
0
  7
Normal#0.500000#3.000000
  1
7.0
 39
3
 62
7
  0
TEXT
  8
contour
  6
CONTINUOUS
 10
112.343331
 20
248.868441
 40
5.000000
 50
90.000000
 72
0
  7
Normal#0.500000#3.000000
  1
7.0
 39
3
 62
7
  0
TEXT
  8
contour
  6
CONTINUOUS
 10
189.149945
 20
239.235069
 40
5.000000
 50
90.000000
 72
0
  7
Normal#0.500000#3.000000
  1
7.0
 39
3
 62
7
  0
TEXT
  8
contour
  6
CONTINUOUS
 10
32.933104
 20
249.649525
 40
5.000000
 50
90.000000
 72
0
  7
Normal#0.500000#3.000000
  1
7.0
 39
3
 62
7
  0
TEXT
  8
contour
  6
CONTINUOUS
 10
111.301886
 20
179.351946
 40
5.000000
 50
90.000000
 72
0
  7
Normal#0.500000#3.000000
  1
7.0
 39
3
 62
7
  0
TEXT
  8
contour
  6
CONTINUOUS
 10
111.041524
 20
110.095814
 40
5.000000
 50
90.000000
 72
0
  7
Normal#0.500000#3.000000
  1
7.0
 39
3
 62
7
  0
TEXT
  8
contour
  6
CONTINUOUS
 10
163.347655
 20
105.945038
 40
5.000000
 50
90.000000
 72
0
  7
Normal#0.500000#3.000000
  1
10.5
 39
3
 62
7
  0
TEXT
  8
contour
  6
CONTINUOUS
 10
59.376348
 20
255.899574
 40
5.000000
 50
90.000000
 72
0
  7
Normal#0.500000#3.000000
  1
10.5
 39
3
 62
7
  0
TEXT
  8
contour
  6
CONTINUOUS
 10
38.119135
 20
140.038916
 40
5.000000
 50
90.000000
 72
0
  7
Normal#0.500000#3.000000
  1
bend here
 39
3
 62
7
  0
TEXT
  8
contour
  6
CONTINUOUS
 10
63.062543
 20
222.292776
 40
5.000000
 50
90.000000
 72
0
  7
Normal#0.500000#3.000000
  1
bend here
 39
3
 62
7
  0
TEXT
  8
contour
  6
CONTINUOUS
 10
142.643895
 20
151.025893
 40
5.000000
 50
90.000000
 72
0
  7
Normal#0.500000#3.000000
  1
bend here
 39
3
 62
7
  0
TEXT
  8
contour
  6
CONTINUOUS
 10
175.010937
 20
143.899205
 40
5.000000
 50
90.000000
 72
0
  7
Normal#0.500000#3.000000
  1
bend here
 39
3
 62
7
  0
TEXT
  8
contour
  6
CONTINUOUS
 10
60.983926
 20
144.790041
 40
7.000000
 50
90.000000
 72
0
  7
Normal#0.700000#4.200000
  1
Heel 25x25 section
 39
3
 62
7
  0
TEXT
  8
contour
  6
CONTINUOUS
 10
164.914796
 20
133.803064
 40
7.000000
 50
90.000000
 72
0
  7
Normal#0.700000#4.200000
  1
Heel 25x25 section
 39
3
 62
7
  0
TEXT
  8
contour
  6
CONTINUOUS
 10
161.351452
 20
249.908692
 40
4.000000
 50
90.000000
 72
1
  7
Normal#0.400000#2.400000
  1
fit
 39
3
 62
7
  0
TEXT
  8
contour
  6
CONTINUOUS
 10
166.951452
 20
249.908692
 40
4.000000
 50
90.000000
 72
1
  7
Normal#0.400000#2.400000
  1
together
 39
3
 62
7
  0
TEXT
  8
contour
  6
CONTINUOUS
 10
161.054506
 20
230.310300
 40
4.000000
 50
90.000000
 72
1
  7
Normal#0.400000#2.400000
  1
fit
 39
3
 62
7
  0
TEXT
  8
contour
  6
CONTINUOUS
 10
166.654506
 20
230.310300
 40
4.000000
 50
90.000000
 72
1
  7
Normal#0.400000#2.400000
  1
together
 39
3
 62
7
  0
TEXT
  8
contour
  6
CONTINUOUS
 10
44.651932
 20
89.855153
 40
4.000000
 50
90.000000
 72
1
  7
Normal#0.400000#2.400000
  1
fit
 39
3
 62
7
  0
TEXT
  8
contour
  6
CONTINUOUS
 10
50.251932
 20
89.855153
 40
4.000000
 50
90.000000
 72
1
  7
Normal#0.400000#2.400000
  1
together
 39
3
 62
7
  0
TEXT
  8
contour
  6
CONTINUOUS
 10
45.245823
 20
70.553706
 40
4.000000
 50
90.000000
 72
1
  7
Normal#0.400000#2.400000
  1
fit
 39
3
 62
7
  0
TEXT
  8
contour
  6
CONTINUOUS
 10
50.845823
 20
70.553706
 40
4.000000
 50
90.000000
 72
1
  7
Normal#0.400000#2.400000
  1
together
 39
3
 62
7
  0
TEXT
  8
contour
  6
CONTINUOUS
 10
98.992930
 20
90.152098
 40
3.000000
 50
90.000000
 72
1
  7
Normal#0.300000#1.800000
  1
fit
 39
3
 62
7
  0
TEXT
  8
contour
  6
CONTINUOUS
 10
103.192930
 20
90.152098
 40
3.000000
 50
90.000000
 72
1
  7
Normal#0.300000#1.800000
  1
together
 39
3
 62
7
  0
TEXT
  8
contour
  6
CONTINUOUS
 10
99.586820
 20
68.772034
 40
3.000000
 50
90.000000
 72
1
  7
Normal#0.300000#1.800000
  1
fit
 39
3
 62
7
  0
TEXT
  8
contour
  6
CONTINUOUS
 10
103.786820
 20
68.772034
 40
3.000000
 50
90.000000
 72
1
  7
Normal#0.300000#1.800000
  1
together
 39
3
 62
7
  0
TEXT
  8
contour
  6
CONTINUOUS
 10
166.993413
 20
36.108046
 40
3.000000
 50
0.000000
 72
1
  7
Normal#0.300000#1.800000
  1
fit
 39
3
 62
7
  0
TEXT
  8
contour
  6
CONTINUOUS
 10
166.993413
 20
31.908046
 40
3.000000
 50
0.000000
 72
1
  7
Normal#0.300000#1.800000
  1
together
 39
3
 62
7
  0
TEXT
  8
contour
  6
CONTINUOUS
 10
185.107079
 20
35.811101
 40
3.000000
 50
0.000000
 72
1
  7
Normal#0.300000#1.800000
  1
fit
 39
3
 62
7
  0
TEXT
  8
contour
  6
CONTINUOUS
 10
185.107079
 20
31.611101
 40
3.000000
 50
0.000000
 72
1
  7
Normal#0.300000#1.800000
  1
together
 39
3
 62
7
  0
TEXT
  8
contour
  6
CONTINUOUS
 10
101.368493
 20
142.117533
 40
5.000000
 50
90.000000
 72
1
  7
Normal#0.500000#3.000000
  1
Heel flange 20x? flat
 39
3
 62
7
  0
TEXT
  8
contour
  6
CONTINUOUS
 10
97.211258
 20
42.937789
 40
5.000000
 50
0.000000
 72
1
  7
Normal#0.500000#3.000000
  1
Heel flange 20x? flat
 39
3
 62
7
  0
ENDSEC
  0
EOF
