999
dxflib 2.0.4.0
  0
SECTION
  2
HEADER
  9
$ACADVER
  1
AC1015
  9
$HANDSEED
  5
FFFF
  9
$DIMASZ
 40
2.5
  9
$DIMGAP
 40
0.625
  9
$INSUNITS
 70
4
  9
$DIMEXO
 40
0.625
  9
$DIMTXT
 40
2.5
  9
$DIMSTYLE
  2
Standard
  9
$PLIMMIN
 10
0.0
 20
0.0
  9
$PLIMMAX
 10
210.0
 20
297.0
  9
$PINSBASE
 10
-3.2721382289419125
 20
143.25
 30
0.0
  9
$DIMEXE
 40
1.25
  0
ENDSEC
  0
SECTION
  2
TABLES
  0
TABLE
  2
VPORT
  5
8
100
AcDbSymbolTable
 70
1
  0
VPORT
  5
30
100
AcDbSymbolTableRecord
100
AcDbViewportTableRecord
  2
*Active
 70
0
 10
0.0
 20
0.0
 11
1.0
 21
1.0
 12
286.3055555555554861
 22
148.5
 13
0.0
 23
0.0
 14
10.0
 24
10.0
 15
10.0
 25
10.0
 16
0.0
 26
0.0
 36
1.0
 17
0.0
 27
0.0
 37
0.0
 40
297.0
 41
1.92798353909465
 42
50.0
 43
0.0
 44
0.0
 50
0.0
 51
0.0
 71
0
 72
100
 73
1
 74
3
 75
1
 76
1
 77
0
 78
0
281
0
 65
1
110
0.0
120
0.0
130
0.0
111
1.0
121
0.0
131
0.0
112
0.0
122
1.0
132
0.0
 79
0
146
0.0
  0
ENDTAB
  0
TABLE
  2
LTYPE
  5
5
100
AcDbSymbolTable
 70
21
  0
LTYPE
  5
14
100
AcDbSymbolTableRecord
100
AcDbLinetypeTableRecord
  2
ByBlock
 70
0
  3

 72
65
 73
0
 40
0.0
  0
LTYPE
  5
15
100
AcDbSymbolTableRecord
100
AcDbLinetypeTableRecord
  2
ByLayer
 70
0
  3

 72
65
 73
0
 40
0.0
  0
LTYPE
  5
16
100
AcDbSymbolTableRecord
100
AcDbLinetypeTableRecord
  2
CONTINUOUS
 70
0
  3
Solid line
 72
65
 73
0
 40
0.0
  0
LTYPE
  5
31
100
AcDbSymbolTableRecord
100
AcDbLinetypeTableRecord
  2
DOT
 70
0
  3
Dot . . . . . . . . . . . . . . . . . . . . . .
 72
65
 73
2
 40
6.3499999999999996
 49
0.0
 74
0
 49
-6.3499999999999996
 74
0
  0
LTYPE
  5
32
100
AcDbSymbolTableRecord
100
AcDbLinetypeTableRecord
  2
DOT2
 70
0
  3
Dot (.5x) .....................................
 72
65
 73
2
 40
3.1749999999999998
 49
0.0
 74
0
 49
-3.1749999999999998
 74
0
  0
LTYPE
  5
33
100
AcDbSymbolTableRecord
100
AcDbLinetypeTableRecord
  2
DOTX2
 70
0
  3
Dot (2x) .  .  .  .  .  .  .  .  .  .  .  .  .
 72
65
 73
2
 40
12.6999999999999993
 49
0.0
 74
0
 49
-12.6999999999999993
 74
0
  0
LTYPE
  5
34
100
AcDbSymbolTableRecord
100
AcDbLinetypeTableRecord
  2
DASHED
 70
0
  3
Dashed __ __ __ __ __ __ __ __ __ __ __ __ __ _
 72
65
 73
2
 40
19.0500000000000007
 49
12.6999999999999993
 74
0
 49
-6.3499999999999996
 74
0
  0
LTYPE
  5
35
100
AcDbSymbolTableRecord
100
AcDbLinetypeTableRecord
  2
DASHED2
 70
0
  3
Dashed (.5x) _ _ _ _ _ _ _ _ _ _ _ _ _ _ _ _ _
 72
65
 73
2
 40
9.5250000000000004
 49
6.3499999999999996
 74
0
 49
-3.1749999999999998
 74
0
  0
LTYPE
  5
36
100
AcDbSymbolTableRecord
100
AcDbLinetypeTableRecord
  2
DASHEDX2
 70
0
  3
Dashed (2x) ____  ____  ____  ____  ____  ___
 72
65
 73
2
 40
38.1000000000000014
 49
25.3999999999999986
 74
0
 49
-12.6999999999999993
 74
0
  0
LTYPE
  5
37
100
AcDbSymbolTableRecord
100
AcDbLinetypeTableRecord
  2
DASHDOT
 70
0
  3
Dash dot __ . __ . __ . __ . __ . __ . __ . __
 72
65
 73
4
 40
25.3999999999999986
 49
12.6999999999999993
 74
0
 49
-6.3499999999999996
 74
0
 49
0.0
 74
0
 49
-6.3499999999999996
 74
0
  0
LTYPE
  5
38
100
AcDbSymbolTableRecord
100
AcDbLinetypeTableRecord
  2
DASHDOT2
 70
0
  3
Dash dot (.5x) _._._._._._._._._._._._._._._.
 72
65
 73
4
 40
12.6999999999999993
 49
6.3499999999999996
 74
0
 49
-3.1749999999999998
 74
0
 49
0.0
 74
0
 49
-3.1749999999999998
 74
0
  0
LTYPE
  5
39
100
AcDbSymbolTableRecord
100
AcDbLinetypeTableRecord
  2
DASHDOTX2
 70
0
  3
Dash dot (2x) ____  .  ____  .  ____  .  ___
 72
65
 73
4
 40
50.7999999999999972
 49
25.3999999999999986
 74
0
 49
-12.6999999999999993
 74
0
 49
0.0
 74
0
 49
-12.6999999999999993
 74
0
  0
LTYPE
  5
3A
100
AcDbSymbolTableRecord
100
AcDbLinetypeTableRecord
  2
DIVIDE
 70
0
  3
Divide ____ . . ____ . . ____ . . ____ . . ____
 72
65
 73
6
 40
31.75
 49
12.6999999999999993
 74
0
 49
-6.3499999999999996
 74
0
 49
0.0
 74
0
 49
-6.3499999999999996
 74
0
 49
0.0
 74
0
 49
-6.3499999999999996
 74
0
  0
LTYPE
  5
3B
100
AcDbSymbolTableRecord
100
AcDbLinetypeTableRecord
  2
DIVIDE2
 70
0
  3
Divide (.5x) __..__..__..__..__..__..__..__.._
 72
65
 73
6
 40
15.875
 49
6.3499999999999996
 74
0
 49
-3.1749999999999998
 74
0
 49
0.0
 74
0
 49
-3.1749999999999998
 74
0
 49
0.0
 74
0
 49
-3.1749999999999998
 74
0
  0
LTYPE
  5
3C
100
AcDbSymbolTableRecord
100
AcDbLinetypeTableRecord
  2
DIVIDEX2
 70
0
  3
Divide (2x) ________  .  .  ________  .  .  _
 72
65
 73
6
 40
63.5
 49
25.3999999999999986
 74
0
 49
-12.6999999999999993
 74
0
 49
0.0
 74
0
 49
-12.6999999999999993
 74
0
 49
0.0
 74
0
 49
-12.6999999999999993
 74
0
  0
LTYPE
  5
3D
100
AcDbSymbolTableRecord
100
AcDbLinetypeTableRecord
  2
CENTER
 70
0
  3
Center ____ _ ____ _ ____ _ ____ _ ____ _ ____
 72
65
 73
4
 40
50.7999999999999972
 49
31.75
 74
0
 49
-6.3499999999999996
 74
0
 49
6.3499999999999996
 74
0
 49
-6.3499999999999996
 74
0
  0
LTYPE
  5
3E
100
AcDbSymbolTableRecord
100
AcDbLinetypeTableRecord
  2
CENTER2
 70
0
  3
Center (.5x) ___ _ ___ _ ___ _ ___ _ ___ _ ___
 72
65
 73
4
 40
28.5749999999999993
 49
19.0500000000000007
 74
0
 49
-3.1749999999999998
 74
0
 49
3.1749999999999998
 74
0
 49
-3.1749999999999998
 74
0
  0
LTYPE
  5
3F
100
AcDbSymbolTableRecord
100
AcDbLinetypeTableRecord
  2
CENTERX2
 70
0
  3
Center (2x) ________  __  ________  __  _____
 72
65
 73
4
 40
101.5999999999999943
 49
63.5
 74
0
 49
-12.6999999999999993
 74
0
 49
12.6999999999999993
 74
0
 49
-12.6999999999999993
 74
0
  0
LTYPE
  5
40
100
AcDbSymbolTableRecord
100
AcDbLinetypeTableRecord
  2
BORDER
 70
0
  3
Border __ __ . __ __ . __ __ . __ __ . __ __ .
 72
65
 73
6
 40
44.4500000000000028
 49
12.6999999999999993
 74
0
 49
-6.3499999999999996
 74
0
 49
12.6999999999999993
 74
0
 49
-6.3499999999999996
 74
0
 49
0.0
 74
0
 49
-6.3499999999999996
 74
0
  0
LTYPE
  5
41
100
AcDbSymbolTableRecord
100
AcDbLinetypeTableRecord
  2
BORDER2
 70
0
  3
Border (.5x) __.__.__.__.__.__.__.__.__.__.__.
 72
65
 73
6
 40
22.2250000000000014
 49
6.3499999999999996
 74
0
 49
-3.1749999999999998
 74
0
 49
6.3499999999999996
 74
0
 49
-3.1749999999999998
 74
0
 49
0.0
 74
0
 49
-3.1749999999999998
 74
0
  0
LTYPE
  5
42
100
AcDbSymbolTableRecord
100
AcDbLinetypeTableRecord
  2
BORDERX2
 70
0
  3
Border (2x) ____  ____  .  ____  ____  .  ___
 72
65
 73
6
 40
88.9000000000000057
 49
25.3999999999999986
 74
0
 49
-12.6999999999999993
 74
0
 49
25.3999999999999986
 74
0
 49
-12.6999999999999993
 74
0
 49
0.0
 74
0
 49
-12.6999999999999993
 74
0
  0
ENDTAB
  0
TABLE
  2
LAYER
  5
2
100
AcDbSymbolTable
 70
3
  0
LAYER
  5
10
100
AcDbSymbolTableRecord
100
AcDbLayerTableRecord
  2
0
 70
0
 62
7
  6
CONTINUOUS
370
0
390
F
  0
LAYER
  5
43
100
AcDbSymbolTableRecord
100
AcDbLayerTableRecord
  2
contour
 70
0
 62
7
  6
CONTINUOUS
370
35
390
F
  0
LAYER
  5
44
100
AcDbSymbolTableRecord
100
AcDbLayerTableRecord
  2
helper
 70
0
 62
7
  6
CONTINUOUS
370
13
390
F
  0
ENDTAB
  0
TABLE
  2
STYLE
  5
3
100
AcDbSymbolTable
 70
1
  0
STYLE
  5
11
100
AcDbSymbolTableRecord
100
AcDbTextStyleTableRecord
  2
Standard
 70
0
 40
0.0
 41
1.0
 50
0.0
 71
0
 42
2.5
  3
txt
  4

  0
ENDTAB
  0
TABLE
  2
VIEW
  5
6
100
AcDbSymbolTable
 70
0
  0
ENDTAB
  0
TABLE
  2
UCS
  5
7
100
AcDbSymbolTable
 70
0
  0
ENDTAB
  0
TABLE
  2
APPID
  5
9
100
AcDbSymbolTable
 70
1
  0
APPID
  5
12
100
AcDbSymbolTableRecord
100
AcDbRegAppTableRecord
  2
ACAD
 70
0
  0
ENDTAB
  0
TABLE
  2
DIMSTYLE
  5
A
100
AcDbSymbolTable
 70
1
100
AcDbDimStyleTable
 71
0
  0
DIMSTYLE
105
27
100
AcDbSymbolTableRecord
100
AcDbDimStyleTableRecord
  2
Standard
 41
2.5
 42
0.625
 43
3.75
 44
1.25
 70
0
 73
0
 74
0
 77
1
 78
8
140
2.5
141
2.5
143
0.03937007874016
147
0.625
171
3
172
1
271
2
272
2
274
3
278
44
283
0
284
8
340
11
  0
ENDTAB
  0
TABLE
  2
BLOCK_RECORD
  5
1
100
AcDbSymbolTable
 70
1
  0
BLOCK_RECORD
  5
1F
100
AcDbSymbolTableRecord
100
AcDbBlockTableRecord
  2
*Model_Space
340
22
  0
BLOCK_RECORD
  5
1B
100
AcDbSymbolTableRecord
100
AcDbBlockTableRecord
  2
*Paper_Space
340
1E
  0
BLOCK_RECORD
  5
23
100
AcDbSymbolTableRecord
100
AcDbBlockTableRecord
  2
*Paper_Space0
340
26
  0
ENDTAB
  0
ENDSEC
  0
SECTION
  2
BLOCKS
  0
BLOCK
  5
20
100
AcDbEntity
  8
0
100
AcDbBlockBegin
  2
*Model_Space
 70
0
 10
0.0
 20
0.0
 30
0.0
  3
*Model_Space
  1

  0
ENDBLK
  5
21
100
AcDbEntity
  8
0
100
AcDbBlockEnd
  0
BLOCK
  5
1C
100
AcDbEntity
 67
1
  8
0
100
AcDbBlockBegin
  2
*Paper_Space
 70
0
 10
0.0
 20
0.0
 30
0.0
  3
*Paper_Space
  1

  0
ENDBLK
  5
1D
100
AcDbEntity
 67
1
  8
0
100
AcDbBlockEnd
  0
BLOCK
  5
24
100
AcDbEntity
  8
0
100
AcDbBlockBegin
  2
*Paper_Space0
 70
0
 10
0.0
 20
0.0
 30
0.0
  3
*Paper_Space0
  1

  0
ENDBLK
  5
25
100
AcDbEntity
  8
0
100
AcDbBlockEnd
  0
ENDSEC
  0
SECTION
  2
ENTITIES
  0
LINE
  5
45
100
AcDbEntity
100
AcDbLine
  8
contour
 62
256
370
-1
  6
ByLayer
 10
78.0993520518359219
 20
-111.5
 30
0.0
 11
98.0561555075596516
 21
-111.5
 31
0.0
  0
LINE
  5
46
100
AcDbEntity
100
AcDbLine
  8
helper
 62
256
370
-1
  6
ByLayer
 10
78.0993520518359219
 20
90.625
 30
0.0
 11
98.0561555075596516
 21
90.625
 31
0.0
  0
LINE
  5
47
100
AcDbEntity
100
AcDbLine
  8
helper
 62
256
370
-1
  6
ByLayer
 10
78.0993520518359219
 20
61.75
 30
0.0
 11
98.0561555075596516
 21
61.75
 31
0.0
  0
LINE
  5
48
100
AcDbEntity
100
AcDbLine
  8
helper
 62
256
370
-1
  6
ByLayer
 10
78.0993520518359219
 20
32.875
 30
0.0
 11
98.0561555075596516
 21
32.875
 31
0.0
  0
LINE
  5
49
100
AcDbEntity
100
AcDbLine
  8
helper
 62
256
370
-1
  6
ByLayer
 10
78.0993520518359219
 20
-24.875
 30
0.0
 11
98.0561555075596516
 21
-24.875
 31
0.0
  0
LINE
  5
4A
100
AcDbEntity
100
AcDbLine
  8
helper
 62
256
370
-1
  6
ByLayer
 10
78.0993520518359219
 20
-82.625
 30
0.0
 11
98.0561555075596516
 21
-82.625
 31
0.0
  0
LINE
  5
4B
100
AcDbEntity
100
AcDbLine
  8
contour
 62
256
370
-1
  6
ByLayer
 10
98.0561555075596516
 20
-111.5
 30
0.0
 11
98.0561555075596516
 21
119.5
 31
0.0
  0
MTEXT
  5
4C
100
AcDbEntity
100
AcDbMText
  8
contour
 62
256
370
-1
  6
ByLayer
 10
88.6246287800972823
 20
-76.4843749998967155
 30
0.0
 40
8.0
 41
100.0
 71
5
 72
2
  1
25
  7
normallatin1
 50
0.0
 73
0
 44
1.0
  0
MTEXT
  5
4D
100
AcDbEntity
100
AcDbMText
  8
contour
 62
256
370
-1
  6
ByLayer
 10
87.4527537800970549
 20
-104.6093749999038778
 30
0.0
 40
8.0
 41
100.0
 71
5
 72
2
  1
0
  7
normallatin1
 50
0.0
 73
0
 44
1.0
  0
MTEXT
  5
4E
100
AcDbEntity
100
AcDbMText
  8
contour
 62
256
370
-1
  6
ByLayer
 10
88.6246287800972823
 20
-17.1093749998814815
 30
0.0
 40
8.0
 41
100.0
 71
5
 72
2
  1
75
  7
normallatin1
 50
0.0
 73
0
 44
1.0
  0
MTEXT
  5
4F
100
AcDbEntity
100
AcDbMText
  8
contour
 62
256
370
-1
  6
ByLayer
 10
88.2340037800972823
 20
39.9218750001331273
 30
0.0
 40
8.0
 41
100.0
 71
5
 72
2
  1
125
  7
normallatin1
 50
0.0
 73
0
 44
1.0
  0
MTEXT
  5
50
100
AcDbEntity
100
AcDbMText
  8
contour
 62
256
370
-1
  6
ByLayer
 10
87.8433787800970549
 20
69.2187500001406306
 30
0.0
 40
8.0
 41
100.0
 71
5
 72
2
  1
150
  7
normallatin1
 50
0.0
 73
0
 44
1.0
  0
MTEXT
  5
51
100
AcDbEntity
100
AcDbMText
  8
contour
 62
256
370
-1
  6
ByLayer
 10
87.4527537800970549
 20
96.9531250001476792
 30
0.0
 40
8.0
 41
100.0
 71
5
 72
2
  1
175
  7
normallatin1
 50
0.0
 73
0
 44
1.0
  0
MTEXT
  5
52
100
AcDbEntity
100
AcDbMText
  8
contour
 62
256
370
-1
  6
ByLayer
 10
87.4527537800970549
 20
113.7500000001519993
 30
0.0
 40
8.0
 41
100.0
 71
5
 72
2
  1
200
  7
normallatin1
 50
0.0
 73
0
 44
1.0
  0
MTEXT
  5
53
100
AcDbEntity
100
AcDbMText
  8
contour
 62
256
370
-1
  6
ByLayer
 10
87.1597850301091057
 20
10.7226562501294893
 30
0.0
 40
4.0
 41
100.0
 71
5
 72
2
  1
462mm\Pcircumference
  7
normallatin1
 50
90.0
 73
0
 44
1.0
  0
LINE
  5
54
100
AcDbEntity
100
AcDbLine
  8
contour
 62
256
370
-1
  6
ByLayer
 10
98.0561555075596516
 20
-111.5
 30
0.0
 11
118.0561555075596516
 21
-111.5
 31
0.0
  0
LINE
  5
55
100
AcDbEntity
100
AcDbLine
  8
contour
 62
256
370
-1
  6
ByLayer
 10
98.0561555075596516
 20
-111.5
 30
0.0
 11
98.0561555075596516
 21
120.0
 31
0.0
  0
LINE
  5
56
100
AcDbEntity
100
AcDbLine
  8
contour
 62
256
370
-1
  6
ByLayer
 10
118.0561555075596516
 20
-111.5
 30
0.0
 11
118.0561555075596516
 21
120.0
 31
0.0
  0
LINE
  5
57
100
AcDbEntity
100
AcDbLine
  8
helper
 62
256
370
-1
  6
ByLayer
 10
98.0561555075596516
 20
91.0625
 30
0.0
 11
118.0561555075596516
 21
91.0625
 31
0.0
  0
LINE
  5
58
100
AcDbEntity
100
AcDbLine
  8
helper
 62
256
370
-1
  6
ByLayer
 10
98.0561555075596516
 20
62.125
 30
0.0
 11
118.0561555075596516
 21
62.125
 31
0.0
  0
LINE
  5
59
100
AcDbEntity
100
AcDbLine
  8
helper
 62
256
370
-1
  6
ByLayer
 10
98.0561555075596516
 20
33.1875
 30
0.0
 11
118.0561555075596516
 21
33.1875
 31
0.0
  0
LINE
  5
5A
100
AcDbEntity
100
AcDbLine
  8
helper
 62
256
370
-1
  6
ByLayer
 10
98.0561555075596516
 20
-24.6875
 30
0.0
 11
118.0561555075596516
 21
-24.6875
 31
0.0
  0
LINE
  5
5B
100
AcDbEntity
100
AcDbLine
  8
helper
 62
256
370
-1
  6
ByLayer
 10
98.0561555075596516
 20
-82.5625
 30
0.0
 11
118.0561555075596516
 21
-82.5625
 31
0.0
  0
MTEXT
  5
5C
100
AcDbEntity
100
AcDbMText
  8
contour
 62
256
370
-1
  6
ByLayer
 10
107.7545566705491638
 20
-75.6406249999465103
 30
0.0
 40
8.0
 41
100.0
 71
5
 72
2
  1
25
  7
normallatin1
 50
0.0
 73
0
 44
1.0
  0
MTEXT
  5
5D
100
AcDbEntity
100
AcDbMText
  8
contour
 62
256
370
-1
  6
ByLayer
 10
108.1451816705491638
 20
-104.9374999999508873
 30
0.0
 40
8.0
 41
100.0
 71
5
 72
2
  1
0
  7
normallatin1
 50
0.0
 73
0
 44
1.0
  0
MTEXT
  5
5E
100
AcDbEntity
100
AcDbMText
  8
contour
 62
256
370
-1
  6
ByLayer
 10
107.461587920550528
 20
-15.8505859374370175
 30
0.0
 40
8.0
 41
100.0
 71
5
 72
2
  1
75
  7
normallatin1
 50
0.0
 73
0
 44
1.0
  0
MTEXT
  5
5F
100
AcDbEntity
100
AcDbMText
  8
contour
 62
256
370
-1
  6
ByLayer
 10
108.260806670554075
 20
39.3000000000724867
 30
0.0
 40
8.0
 41
100.0
 71
5
 72
2
  1
125
  7
normallatin1
 50
0.0
 73
0
 44
1.0
  0
MTEXT
  5
60
100
AcDbEntity
100
AcDbMText
  8
contour
 62
256
370
-1
  6
ByLayer
 10
107.2608066705538477
 20
68.3000000000770342
 30
0.0
 40
8.0
 41
100.0
 71
5
 72
2
  1
150
  7
normallatin1
 50
0.0
 73
0
 44
1.0
  0
MTEXT
  5
61
100
AcDbEntity
100
AcDbMText
  8
contour
 62
256
370
-1
  6
ByLayer
 10
108.438150420555985
 20
98.2851562500823093
 30
0.0
 40
8.0
 41
100.0
 71
5
 72
2
  1
175
  7
normallatin1
 50
0.0
 73
0
 44
1.0
  0
MTEXT
  5
62
100
AcDbEntity
100
AcDbMText
  8
contour
 62
256
370
-1
  6
ByLayer
 10
107.8608066705573947
 20
114.5000000000854925
 30
0.0
 40
8.0
 41
100.0
 71
5
 72
2
  1
200
  7
normallatin1
 50
0.0
 73
0
 44
1.0
  0
MTEXT
  5
63
100
AcDbEntity
100
AcDbMText
  8
contour
 62
256
370
-1
  6
ByLayer
 10
107.1608066705684905
 20
12.7500000000733849
 30
0.0
 40
4.0
 41
100.0
 71
5
 72
2
  1
463mm\Pcircumference
  7
normallatin1
 50
90.0
 73
0
 44
1.0
  0
LINE
  5
64
100
AcDbEntity
100
AcDbLine
  8
contour
 62
256
370
-1
  6
ByLayer
 10
78.0993520518359219
 20
119.5
 30
0.0
 11
78.0993520518359219
 21
-111.5
 31
0.0
  0
LINE
  5
65
100
AcDbEntity
100
AcDbLine
  8
contour
 62
256
370
-1
  6
ByLayer
 10
78.0993520518359219
 20
119.5
 30
0.0
 11
98.0561555075596516
 21
119.5
 31
0.0
  0
LINE
  5
66
100
AcDbEntity
100
AcDbLine
  8
contour
 62
256
370
-1
  6
ByLayer
 10
98.0561555075596516
 20
120.0
 30
0.0
 11
118.0561555075596516
 21
120.0
 31
0.0
  0
LINE
  5
67
100
AcDbEntity
100
AcDbLine
  8
contour
 62
256
370
-1
  6
ByLayer
 10
18.4881209503241735
 20
-111.5
 30
0.0
 11
38.3153347732181828
 21
-111.5
 31
0.0
  0
LINE
  5
68
100
AcDbEntity
100
AcDbLine
  8
helper
 62
256
370
-1
  6
ByLayer
 10
18.4881209503241735
 20
89.3124999999999858
 30
0.0
 11
38.3153347732181828
 21
89.3124999999999858
 31
0.0
  0
LINE
  5
69
100
AcDbEntity
100
AcDbLine
  8
helper
 62
256
370
-1
  6
ByLayer
 10
18.4881209503241735
 20
60.6249999999999858
 30
0.0
 11
38.3153347732181828
 21
60.6249999999999858
 31
0.0
  0
LINE
  5
6A
100
AcDbEntity
100
AcDbLine
  8
helper
 62
256
370
-1
  6
ByLayer
 10
18.4881209503241735
 20
31.9375
 30
0.0
 11
38.3153347732181828
 21
31.9375
 31
0.0
  0
LINE
  5
6B
100
AcDbEntity
100
AcDbLine
  8
helper
 62
256
370
-1
  6
ByLayer
 10
18.4881209503241735
 20
-25.4375
 30
0.0
 11
38.3153347732181828
 21
-25.4375
 31
0.0
  0
LINE
  5
6C
100
AcDbEntity
100
AcDbLine
  8
helper
 62
256
370
-1
  6
ByLayer
 10
18.4881209503241735
 20
-82.8125
 30
0.0
 11
38.3153347732181828
 21
-82.8125
 31
0.0
  0
LINE
  5
6D
100
AcDbEntity
100
AcDbLine
  8
contour
 62
256
370
-1
  6
ByLayer
 10
38.3153347732181828
 20
-111.5
 30
0.0
 11
38.3153347732181828
 21
117.9999999999999858
 31
0.0
  0
LINE
  5
6E
100
AcDbEntity
100
AcDbLine
  8
contour
 62
256
370
-1
  6
ByLayer
 10
18.4881209503241735
 20
-111.5
 30
0.0
 11
18.4881209503241735
 21
117.9999999999999858
 31
0.0
  0
MTEXT
  5
6F
100
AcDbEntity
100
AcDbMText
  8
contour
 62
256
370
-1
  6
ByLayer
 10
29.076776690256338
 20
-74.879150390521545
 30
0.0
 40
8.0
 41
100.0
 71
5
 72
2
  1
25
  7
normallatin1
 50
0.0
 73
0
 44
1.0
  0
MTEXT
  5
70
100
AcDbEntity
100
AcDbMText
  8
contour
 62
256
370
-1
  6
ByLayer
 10
27.7767278621320202
 20
-103.8281249999037072
 30
0.0
 40
8.0
 41
100.0
 71
5
 72
2
  1
0
  7
normallatin1
 50
0.0
 73
0
 44
1.0
  0
MTEXT
  5
71
100
AcDbEntity
100
AcDbMText
  8
contour
 62
256
370
-1
  6
ByLayer
 10
27.3861028621320202
 20
-18.2812499998817657
 30
0.0
 40
8.0
 41
100.0
 71
5
 72
2
  1
75
  7
normallatin1
 50
0.0
 73
0
 44
1.0
  0
MTEXT
  5
72
100
AcDbEntity
100
AcDbMText
  8
contour
 62
256
370
-1
  6
ByLayer
 10
26.6048528621317928
 20
38.7500000001327862
 30
0.0
 40
8.0
 41
100.0
 71
5
 72
2
  1
125
  7
normallatin1
 50
0.0
 73
0
 44
1.0
  0
MTEXT
  5
73
100
AcDbEntity
100
AcDbMText
  8
contour
 62
256
370
-1
  6
ByLayer
 10
27.7767278621320202
 20
67.265625000140048
 30
0.0
 40
8.0
 41
100.0
 71
5
 72
2
  1
150
  7
normallatin1
 50
0.0
 73
0
 44
1.0
  0
MTEXT
  5
74
100
AcDbEntity
100
AcDbMText
  8
contour
 62
256
370
-1
  6
ByLayer
 10
27.7767278621320202
 20
95.7812500001474376
 30
0.0
 40
8.0
 41
100.0
 71
5
 72
2
  1
175
  7
normallatin1
 50
0.0
 73
0
 44
1.0
  0
MTEXT
  5
75
100
AcDbEntity
100
AcDbMText
  8
contour
 62
256
370
-1
  6
ByLayer
 10
28.1673528621320202
 20
112.187500000151644
 30
0.0
 40
8.0
 41
100.0
 71
5
 72
2
  1
200
  7
normallatin1
 50
0.0
 73
0
 44
1.0
  0
MTEXT
  5
76
100
AcDbEntity
100
AcDbMText
  8
contour
 62
256
370
-1
  6
ByLayer
 10
27.6517278621399782
 20
9.0000000001279545
 30
0.0
 40
4.0
 41
100.0
 71
5
 72
2
  1
459mm\Pcircumference
  7
normallatin1
 50
90.0
 73
0
 44
1.0
  0
LINE
  5
77
100
AcDbEntity
100
AcDbLine
  8
contour
 62
256
370
-1
  6
ByLayer
 10
38.3153347732181828
 20
-111.5
 30
0.0
 11
58.1857451403889172
 21
-111.5
 31
0.0
  0
LINE
  5
78
100
AcDbEntity
100
AcDbLine
  8
helper
 62
256
370
-1
  6
ByLayer
 10
38.3153347732181828
 20
89.7499999999999858
 30
0.0
 11
58.1857451403889172
 21
89.7499999999999858
 31
0.0
  0
LINE
  5
79
100
AcDbEntity
100
AcDbLine
  8
helper
 62
256
370
-1
  6
ByLayer
 10
38.3153347732181828
 20
60.9999999999999858
 30
0.0
 11
58.1857451403889172
 21
60.9999999999999858
 31
0.0
  0
LINE
  5
7A
100
AcDbEntity
100
AcDbLine
  8
helper
 62
256
370
-1
  6
ByLayer
 10
38.3153347732181828
 20
32.25
 30
0.0
 11
58.1857451403889172
 21
32.25
 31
0.0
  0
LINE
  5
7B
100
AcDbEntity
100
AcDbLine
  8
helper
 62
256
370
-1
  6
ByLayer
 10
38.3153347732181828
 20
-25.25
 30
0.0
 11
58.1857451403889172
 21
-25.25
 31
0.0
  0
LINE
  5
7C
100
AcDbEntity
100
AcDbLine
  8
helper
 62
256
370
-1
  6
ByLayer
 10
38.3153347732181828
 20
-82.75
 30
0.0
 11
58.1857451403889172
 21
-82.75
 31
0.0
  0
LINE
  5
7D
100
AcDbEntity
100
AcDbLine
  8
contour
 62
256
370
-1
  6
ByLayer
 10
58.1857451403889172
 20
-111.5
 30
0.0
 11
58.1857451403889172
 21
118.4999999999999858
 31
0.0
  0
LINE
  5
7E
100
AcDbEntity
100
AcDbLine
  8
contour
 62
256
370
-1
  6
ByLayer
 10
38.3153347732181828
 20
-111.5
 30
0.0
 11
38.3153347732181828
 21
118.4999999999999858
 31
0.0
  0
MTEXT
  5
7F
100
AcDbEntity
100
AcDbMText
  8
contour
 62
256
370
-1
  6
ByLayer
 10
47.7537137853012155
 20
-76.4050292967719429
 30
0.0
 40
8.0
 41
100.0
 71
5
 72
2
  1
25
  7
normallatin1
 50
0.0
 73
0
 44
1.0
  0
MTEXT
  5
80
100
AcDbEntity
100
AcDbMText
  8
contour
 62
256
370
-1
  6
ByLayer
 10
48.0161649571773523
 20
-104.6093749999038778
 30
0.0
 40
8.0
 41
100.0
 71
5
 72
2
  1
0
  7
normallatin1
 50
0.0
 73
0
 44
1.0
  0
MTEXT
  5
81
100
AcDbEntity
100
AcDbMText
  8
contour
 62
256
370
-1
  6
ByLayer
 10
47.234914957177125
 20
-16.7187499998813678
 30
0.0
 40
8.0
 41
100.0
 71
5
 72
2
  1
75
  7
normallatin1
 50
0.0
 73
0
 44
1.0
  0
MTEXT
  5
82
100
AcDbEntity
100
AcDbMText
  8
contour
 62
256
370
-1
  6
ByLayer
 10
47.625539957177125
 20
38.7500000001327862
 30
0.0
 40
8.0
 41
100.0
 71
5
 72
2
  1
125
  7
normallatin1
 50
0.0
 73
0
 44
1.0
  0
MTEXT
  5
83
100
AcDbEntity
100
AcDbMText
  8
contour
 62
256
370
-1
  6
ByLayer
 10
47.625539957177125
 20
67.265625000140048
 30
0.0
 40
8.0
 41
100.0
 71
5
 72
2
  1
150
  7
normallatin1
 50
0.0
 73
0
 44
1.0
  0
MTEXT
  5
84
100
AcDbEntity
100
AcDbMText
  8
contour
 62
256
370
-1
  6
ByLayer
 10
47.625539957177125
 20
96.953125000147665
 30
0.0
 40
8.0
 41
100.0
 71
5
 72
2
  1
175
  7
normallatin1
 50
0.0
 73
0
 44
1.0
  0
MTEXT
  5
85
100
AcDbEntity
100
AcDbMText
  8
contour
 62
256
370
-1
  6
ByLayer
 10
47.625539957177125
 20
112.578125000151644
 30
0.0
 40
8.0
 41
100.0
 71
5
 72
2
  1
200
  7
normallatin1
 50
0.0
 73
0
 44
1.0
  0
MTEXT
  5
86
100
AcDbEntity
100
AcDbMText
  8
contour
 62
256
370
-1
  6
ByLayer
 10
47.2349149571884936
 20
10.7226562501294893
 30
0.0
 40
4.0
 41
100.0
 71
5
 72
2
  1
460mm\Pcircumference
  7
normallatin1
 50
90.0
 73
0
 44
1.0
  0
LINE
  5
87
100
AcDbEntity
100
AcDbLine
  8
contour
 62
256
370
-1
  6
ByLayer
 10
58.1857451403889172
 20
-111.5
 30
0.0
 11
78.0993520518359219
 21
-111.5
 31
0.0
  0
LINE
  5
88
100
AcDbEntity
100
AcDbLine
  8
helper
 62
256
370
-1
  6
ByLayer
 10
58.1857451403889172
 20
90.1874999999999858
 30
0.0
 11
78.0993520518359219
 21
90.1874999999999858
 31
0.0
  0
LINE
  5
89
100
AcDbEntity
100
AcDbLine
  8
helper
 62
256
370
-1
  6
ByLayer
 10
58.1857451403889172
 20
61.3749999999999858
 30
0.0
 11
78.0993520518359219
 21
61.3749999999999858
 31
0.0
  0
LINE
  5
8A
100
AcDbEntity
100
AcDbLine
  8
helper
 62
256
370
-1
  6
ByLayer
 10
58.1857451403889172
 20
32.5625
 30
0.0
 11
78.0993520518359219
 21
32.5625
 31
0.0
  0
LINE
  5
8B
100
AcDbEntity
100
AcDbLine
  8
helper
 62
256
370
-1
  6
ByLayer
 10
58.1857451403889172
 20
-25.0625
 30
0.0
 11
78.0993520518359219
 21
-25.0625
 31
0.0
  0
LINE
  5
8C
100
AcDbEntity
100
AcDbLine
  8
helper
 62
256
370
-1
  6
ByLayer
 10
58.1857451403889172
 20
-82.6875
 30
0.0
 11
78.0993520518359219
 21
-82.6875
 31
0.0
  0
LINE
  5
8D
100
AcDbEntity
100
AcDbLine
  8
contour
 62
256
370
-1
  6
ByLayer
 10
58.1857451403889172
 20
-111.5
 30
0.0
 11
58.1857451403889172
 21
118.9999999999999858
 31
0.0
  0
MTEXT
  5
8E
100
AcDbEntity
100
AcDbMText
  8
contour
 62
256
370
-1
  6
ByLayer
 10
67.5175485964989548
 20
-75.7031249998964881
 30
0.0
 40
8.0
 41
100.0
 71
5
 72
2
  1
25
  7
normallatin1
 50
0.0
 73
0
 44
1.0
  0
MTEXT
  5
8F
100
AcDbEntity
100
AcDbMText
  8
contour
 62
256
370
-1
  6
ByLayer
 10
67.9081735964989548
 20
-105.3906249999041052
 30
0.0
 40
8.0
 41
100.0
 71
5
 72
2
  1
0
  7
normallatin1
 50
0.0
 73
0
 44
1.0
  0
MTEXT
  5
90
100
AcDbEntity
100
AcDbMText
  8
contour
 62
256
370
-1
  6
ByLayer
 10
67.1269235964987274
 20
-16.3281249998813109
 30
0.0
 40
8.0
 41
100.0
 71
5
 72
2
  1
75
  7
normallatin1
 50
0.0
 73
0
 44
1.0
  0
MTEXT
  5
91
100
AcDbEntity
100
AcDbMText
  8
contour
 62
256
370
-1
  6
ByLayer
 10
67.1269235964987274
 20
38.7500000001327862
 30
0.0
 40
8.0
 41
100.0
 71
5
 72
2
  1
125
  7
normallatin1
 50
0.0
 73
0
 44
1.0
  0
MTEXT
  5
92
100
AcDbEntity
100
AcDbMText
  8
contour
 62
256
370
-1
  6
ByLayer
 10
67.5175485964989548
 20
68.0468750001402753
 30
0.0
 40
8.0
 41
100.0
 71
5
 72
2
  1
150
  7
normallatin1
 50
0.0
 73
0
 44
1.0
  0
MTEXT
  5
93
100
AcDbEntity
100
AcDbMText
  8
contour
 62
256
370
-1
  6
ByLayer
 10
67.5175485964989548
 20
96.953125000147665
 30
0.0
 40
8.0
 41
100.0
 71
5
 72
2
  1
175
  7
normallatin1
 50
0.0
 73
0
 44
1.0
  0
MTEXT
  5
94
100
AcDbEntity
100
AcDbMText
  8
contour
 62
256
370
-1
  6
ByLayer
 10
67.5175485964989548
 20
112.578125000151644
 30
0.0
 40
8.0
 41
100.0
 71
5
 72
2
  1
200
  7
normallatin1
 50
0.0
 73
0
 44
1.0
  0
MTEXT
  5
95
100
AcDbEntity
100
AcDbMText
  8
contour
 62
256
370
-1
  6
ByLayer
 10
67.9081735965107782
 20
9.2578125001290914
 30
0.0
 40
4.0
 41
100.0
 71
5
 72
2
  1
461mm\Pcircumference
  7
normallatin1
 50
90.0
 73
0
 44
1.0
  0
LINE
  5
96
100
AcDbEntity
100
AcDbLine
  8
contour
 62
256
370
-1
  6
ByLayer
 10
78.0993520518359219
 20
118.9999999999999858
 30
0.0
 11
78.0993520518359219
 21
-111.5
 31
0.0
  0
LINE
  5
97
100
AcDbEntity
100
AcDbLine
  8
contour
 62
256
370
-1
  6
ByLayer
 10
18.4881209503241735
 20
117.9999999999999858
 30
0.0
 11
38.3153347732181828
 21
117.9999999999999858
 31
0.0
  0
LINE
  5
98
100
AcDbEntity
100
AcDbLine
  8
contour
 62
256
370
-1
  6
ByLayer
 10
38.3153347732181828
 20
118.4999999999999858
 30
0.0
 11
58.1857451403889172
 21
118.4999999999999858
 31
0.0
  0
LINE
  5
99
100
AcDbEntity
100
AcDbLine
  8
contour
 62
256
370
-1
  6
ByLayer
 10
58.1857451403889172
 20
118.9999999999999858
 30
0.0
 11
78.0993520518359219
 21
118.9999999999999858
 31
0.0
  0
LINE
  5
9A
100
AcDbEntity
100
AcDbLine
  8
contour
 62
256
370
-1
  6
ByLayer
 10
118.0561555075596516
 20
-111.5
 30
0.0
 11
118.0561555075596516
 21
120.4999999999999716
 31
0.0
  0
LINE
  5
9B
100
AcDbEntity
100
AcDbLine
  8
contour
 62
256
370
-1
  6
ByLayer
 10
138.0561555075596516
 20
-111.5
 30
0.0
 11
138.0561555075596516
 21
120.4999999999999716
 31
0.0
  0
LINE
  5
9C
100
AcDbEntity
100
AcDbLine
  8
contour
 62
256
370
-1
  6
ByLayer
 10
118.0561555075596516
 20
120.4999999999999716
 30
0.0
 11
138.0561555075596516
 21
120.4999999999999716
 31
0.0
  0
LINE
  5
9D
100
AcDbEntity
100
AcDbLine
  8
helper
 62
256
370
-1
  6
ByLayer
 10
118.0561555075596516
 20
91.4999999999999716
 30
0.0
 11
138.0561555075596516
 21
91.4999999999999716
 31
0.0
  0
LINE
  5
9E
100
AcDbEntity
100
AcDbLine
  8
helper
 62
256
370
-1
  6
ByLayer
 10
118.0561555075596516
 20
62.4999999999999716
 30
0.0
 11
138.0561555075596516
 21
62.4999999999999716
 31
0.0
  0
LINE
  5
9F
100
AcDbEntity
100
AcDbLine
  8
helper
 62
256
370
-1
  6
ByLayer
 10
118.0561555075596516
 20
33.4999999999999716
 30
0.0
 11
138.0561555075596516
 21
33.4999999999999716
 31
0.0
  0
LINE
  5
A0
100
AcDbEntity
100
AcDbLine
  8
helper
 62
256
370
-1
  6
ByLayer
 10
118.0561555075596516
 20
-24.5000000000000142
 30
0.0
 11
138.0561555075596516
 21
-24.5000000000000142
 31
0.0
  0
LINE
  5
A1
100
AcDbEntity
100
AcDbLine
  8
helper
 62
256
370
-1
  6
ByLayer
 10
118.0561555075596516
 20
-82.5
 30
0.0
 11
138.0561555075596516
 21
-82.5
 31
0.0
  0
LINE
  5
A2
100
AcDbEntity
100
AcDbLine
  8
contour
 62
256
370
-1
  6
ByLayer
 10
118.0561555075596516
 20
-111.5
 30
0.0
 11
138.0561555075596516
 21
-111.5
 31
0.0
  0
MTEXT
  5
A3
100
AcDbEntity
100
AcDbMText
  8
contour
 62
256
370
-1
  6
ByLayer
 10
128.229681324111084
 20
-103.0826951581031068
 30
0.0
 40
8.0
 41
100.0
 71
5
 72
2
  1
0
  7
normallatin1
 50
0.0
 73
0
 44
1.0
  0
MTEXT
  5
A4
100
AcDbEntity
100
AcDbMText
  8
contour
 62
256
370
-1
  6
ByLayer
 10
127.1774085968384185
 20
-73.9850666996050279
 30
0.0
 40
8.0
 41
100.0
 71
5
 72
2
  1
25
  7
normallatin1
 50
0.0
 73
0
 44
1.0
  0
MTEXT
  5
A5
100
AcDbEntity
100
AcDbMText
  8
contour
 62
256
370
-1
  6
ByLayer
 10
127.5434165019767505
 20
-17.6198493083004628
 30
0.0
 40
8.0
 41
100.0
 71
5
 72
2
  1
75
  7
normallatin1
 50
0.0
 73
0
 44
1.0
  0
MTEXT
  5
A6
100
AcDbEntity
100
AcDbMText
  8
contour
 62
256
370
-1
  6
ByLayer
 10
127.1774085968384185
 20
40.209399703557466
 30
0.0
 40
8.0
 41
100.0
 71
5
 72
2
  1
125
  7
normallatin1
 50
0.0
 73
0
 44
1.0
  0
MTEXT
  5
A7
100
AcDbEntity
100
AcDbMText
  8
contour
 62
256
370
-1
  6
ByLayer
 10
127.5434165019767505
 20
68.7580163043480894
 30
0.0
 40
8.0
 41
100.0
 71
5
 72
2
  1
150
  7
normallatin1
 50
0.0
 73
0
 44
1.0
  0
MTEXT
  5
A8
100
AcDbEntity
100
AcDbMText
  8
contour
 62
256
370
-1
  6
ByLayer
 10
127.9094244071150825
 20
98.4046566205537374
 30
0.0
 40
8.0
 41
100.0
 71
5
 72
2
  1
175
  7
normallatin1
 50
0.0
 73
0
 44
1.0
  0
MTEXT
  5
A9
100
AcDbEntity
100
AcDbMText
  8
contour
 62
256
370
-1
  6
ByLayer
 10
128.4511161067201215
 20
114.3479609683801073
 30
0.0
 40
8.0
 41
100.0
 71
5
 72
2
  1
200
  7
normallatin1
 50
0.0
 73
0
 44
1.0
  0
LINE
  5
AA
100
AcDbEntity
100
AcDbLine
  8
contour
 62
256
370
-1
  6
ByLayer
 10
138.0561555075596516
 20
-111.5
 30
0.0
 11
138.0561555075596516
 21
121.0
 31
0.0
  0
LINE
  5
AB
100
AcDbEntity
100
AcDbLine
  8
contour
 62
256
370
-1
  6
ByLayer
 10
158.0561555075596516
 20
-111.5
 30
0.0
 11
158.0561555075596516
 21
121.0
 31
0.0
  0
LINE
  5
AC
100
AcDbEntity
100
AcDbLine
  8
contour
 62
256
370
-1
  6
ByLayer
 10
138.0561555075596516
 20
-111.5
 30
0.0
 11
158.0561555075596516
 21
-111.5
 31
0.0
  0
LINE
  5
AD
100
AcDbEntity
100
AcDbLine
  8
helper
 62
256
370
-1
  6
ByLayer
 10
138.0561555075596516
 20
-82.4375
 30
0.0
 11
158.0561555075596516
 21
-82.4375
 31
0.0
  0
LINE
  5
AE
100
AcDbEntity
100
AcDbLine
  8
helper
 62
256
370
-1
  6
ByLayer
 10
138.0561555075596516
 20
-24.3125
 30
0.0
 11
158.0561555075596516
 21
-24.3125
 31
0.0
  0
LINE
  5
AF
100
AcDbEntity
100
AcDbLine
  8
helper
 62
256
370
-1
  6
ByLayer
 10
138.0561555075596516
 20
33.8125
 30
0.0
 11
158.0561555075596516
 21
33.8125
 31
0.0
  0
LINE
  5
B0
100
AcDbEntity
100
AcDbLine
  8
helper
 62
256
370
-1
  6
ByLayer
 10
138.0561555075596516
 20
62.875
 30
0.0
 11
158.0561555075596516
 21
62.875
 31
0.0
  0
LINE
  5
B1
100
AcDbEntity
100
AcDbLine
  8
helper
 62
256
370
-1
  6
ByLayer
 10
138.0561555075596516
 20
91.9375
 30
0.0
 11
158.0561555075596516
 21
91.9375
 31
0.0
  0
LINE
  5
B2
100
AcDbEntity
100
AcDbLine
  8
contour
 62
256
370
-1
  6
ByLayer
 10
138.0561555075596516
 20
121.0
 30
0.0
 11
158.0561555075596516
 21
121.0
 31
0.0
  0
MTEXT
  5
B3
100
AcDbEntity
100
AcDbMText
  8
contour
 62
256
370
-1
  6
ByLayer
 10
147.8465167984194863
 20
-104.7812005928857957
 30
0.0
 40
8.0
 41
100.0
 71
5
 72
2
  1
0
  7
normallatin1
 50
0.0
 73
0
 44
1.0
  0
MTEXT
  5
B4
100
AcDbEntity
100
AcDbMText
  8
contour
 62
256
370
-1
  6
ByLayer
 10
148.2125247035578184
 20
-74.4025444664034694
 30
0.0
 40
8.0
 41
100.0
 71
5
 72
2
  1
25
  7
normallatin1
 50
0.0
 73
0
 44
1.0
  0
MTEXT
  5
B5
100
AcDbEntity
100
AcDbMText
  8
contour
 62
256
370
-1
  6
ByLayer
 10
147.1145009881427939
 20
-17.6713191699605581
 30
0.0
 40
8.0
 41
100.0
 71
5
 72
2
  1
75
  7
normallatin1
 50
0.0
 73
0
 44
1.0
  0
MTEXT
  5
B6
100
AcDbEntity
100
AcDbMText
  8
contour
 62
256
370
-1
  6
ByLayer
 10
147.4805088932811543
 20
40.5239377470357098
 30
0.0
 40
8.0
 41
100.0
 71
5
 72
2
  1
125
  7
normallatin1
 50
0.0
 73
0
 44
1.0
  0
MTEXT
  5
B7
100
AcDbEntity
100
AcDbMText
  8
contour
 62
256
370
-1
  6
ByLayer
 10
147.8465167984194863
 20
69.4385622529646724
 30
0.0
 40
8.0
 41
100.0
 71
5
 72
2
  1
150
  7
normallatin1
 50
0.0
 73
0
 44
1.0
  0
MTEXT
  5
B8
100
AcDbEntity
100
AcDbMText
  8
contour
 62
256
370
-1
  6
ByLayer
 10
147.4805088932811543
 20
98.7191946640319884
 30
0.0
 40
8.0
 41
100.0
 71
5
 72
2
  1
175
  7
normallatin1
 50
0.0
 73
0
 44
1.0
  0
MTEXT
  5
B9
100
AcDbEntity
100
AcDbMText
  8
contour
 62
256
370
-1
  6
ByLayer
 10
148.2125247035581594
 20
115.3213132411073616
 30
0.0
 40
8.0
 41
100.0
 71
5
 72
2
  1
200
  7
normallatin1
 50
0.0
 73
0
 44
1.0
  0
LINE
  5
BA
100
AcDbEntity
100
AcDbLine
  8
contour
 62
256
370
-1
  6
ByLayer
 10
158.0561555075596516
 20
-111.5
 30
0.0
 11
158.0561555075596516
 21
121.4999999999999716
 31
0.0
  0
LINE
  5
BB
100
AcDbEntity
100
AcDbLine
  8
contour
 62
256
370
-1
  6
ByLayer
 10
178.0561555075596516
 20
-111.5
 30
0.0
 11
178.0561555075596516
 21
121.4999999999999716
 31
0.0
  0
LINE
  5
BC
100
AcDbEntity
100
AcDbLine
  8
contour
 62
256
370
-1
  6
ByLayer
 10
158.0561555075596516
 20
121.4999999999999716
 30
0.0
 11
178.0561555075596516
 21
121.4999999999999716
 31
0.0
  0
LINE
  5
BD
100
AcDbEntity
100
AcDbLine
  8
helper
 62
256
370
-1
  6
ByLayer
 10
158.0561555075596516
 20
92.3749999999999716
 30
0.0
 11
178.0561555075596516
 21
92.3749999999999716
 31
0.0
  0
LINE
  5
BE
100
AcDbEntity
100
AcDbLine
  8
helper
 62
256
370
-1
  6
ByLayer
 10
158.0561555075596516
 20
63.25
 30
0.0
 11
178.0561555075596516
 21
63.25
 31
0.0
  0
LINE
  5
BF
100
AcDbEntity
100
AcDbLine
  8
helper
 62
256
370
-1
  6
ByLayer
 10
158.0561555075596516
 20
34.125
 30
0.0
 11
178.0561555075596516
 21
34.125
 31
0.0
  0
LINE
  5
C0
100
AcDbEntity
100
AcDbLine
  8
helper
 62
256
370
-1
  6
ByLayer
 10
158.0561555075596516
 20
-24.125
 30
0.0
 11
178.0561555075596516
 21
-24.125
 31
0.0
  0
LINE
  5
C1
100
AcDbEntity
100
AcDbLine
  8
helper
 62
256
370
-1
  6
ByLayer
 10
158.0561555075596516
 20
-82.375
 30
0.0
 11
178.0561555075596516
 21
-82.375
 31
0.0
  0
LINE
  5
C2
100
AcDbEntity
100
AcDbLine
  8
contour
 62
256
370
-1
  6
ByLayer
 10
158.0561555075596516
 20
-111.5
 30
0.0
 11
178.0561555075596516
 21
-111.5
 31
0.0
  0
MTEXT
  5
C3
100
AcDbEntity
100
AcDbMText
  8
contour
 62
256
370
-1
  6
ByLayer
 10
169.6136487154156214
 20
-105.1986783596842088
 30
0.0
 40
8.0
 41
100.0
 71
5
 72
2
  1
0
  7
normallatin1
 50
0.0
 73
0
 44
1.0
  0
MTEXT
  5
C4
100
AcDbEntity
100
AcDbMText
  8
contour
 62
256
370
-1
  6
ByLayer
 10
168.1496170948622364
 20
-74.8200222332018825
 30
0.0
 40
8.0
 41
100.0
 71
5
 72
2
  1
25
  7
normallatin1
 50
0.0
 73
0
 44
1.0
  0
MTEXT
  5
C5
100
AcDbEntity
100
AcDbMText
  8
contour
 62
256
370
-1
  6
ByLayer
 10
168.1496170948622364
 20
-16.2587574110672719
 30
0.0
 40
8.0
 41
100.0
 71
5
 72
2
  1
75
  7
normallatin1
 50
0.0
 73
0
 44
1.0
  0
MTEXT
  5
C6
100
AcDbEntity
100
AcDbMText
  8
contour
 62
256
370
-1
  6
ByLayer
 10
167.4176012845855723
 20
40.838475790513975
 30
0.0
 40
8.0
 41
100.0
 71
5
 72
2
  1
125
  7
normallatin1
 50
0.0
 73
0
 44
1.0
  0
MTEXT
  5
C7
100
AcDbEntity
100
AcDbMText
  8
contour
 62
256
370
-1
  6
ByLayer
 10
168.1496170948622364
 20
69.3870923913046056
 30
0.0
 40
8.0
 41
100.0
 71
5
 72
2
  1
150
  7
normallatin1
 50
0.0
 73
0
 44
1.0
  0
MTEXT
  5
C8
100
AcDbEntity
100
AcDbMText
  8
contour
 62
256
370
-1
  6
ByLayer
 10
168.1496170948622364
 20
99.3997406126485856
 30
0.0
 40
8.0
 41
100.0
 71
5
 72
2
  1
175
  7
normallatin1
 50
0.0
 73
0
 44
1.0
  0
MTEXT
  5
C9
100
AcDbEntity
100
AcDbMText
  8
contour
 62
256
370
-1
  6
ByLayer
 10
167.7396882411076717
 20
115.8261753952575646
 30
0.0
 40
8.0
 41
100.0
 71
5
 72
2
  1
200
  7
normallatin1
 50
0.0
 73
0
 44
1.0
  0
LINE
  5
CA
100
AcDbEntity
100
AcDbLine
  8
contour
 62
256
370
-1
  6
ByLayer
 10
178.0561555075596516
 20
-111.5
 30
0.0
 11
178.0561555075596516
 21
122.0
 31
0.0
  0
LINE
  5
CB
100
AcDbEntity
100
AcDbLine
  8
contour
 62
256
370
-1
  6
ByLayer
 10
198.0561555075596516
 20
-111.5
 30
0.0
 11
198.0561555075596516
 21
122.0
 31
0.0
  0
LINE
  5
CC
100
AcDbEntity
100
AcDbLine
  8
contour
 62
256
370
-1
  6
ByLayer
 10
178.0561555075596516
 20
-111.5
 30
0.0
 11
198.0561555075596516
 21
-111.5
 31
0.0
  0
LINE
  5
CD
100
AcDbEntity
100
AcDbLine
  8
helper
 62
256
370
-1
  6
ByLayer
 10
178.0561555075596516
 20
-82.3125
 30
0.0
 11
198.0561555075596516
 21
-82.3125
 31
0.0
  0
LINE
  5
CE
100
AcDbEntity
100
AcDbLine
  8
helper
 62
256
370
-1
  6
ByLayer
 10
178.0561555075596516
 20
-23.9375
 30
0.0
 11
198.0561555075596516
 21
-23.9375
 31
0.0
  0
LINE
  5
CF
100
AcDbEntity
100
AcDbLine
  8
helper
 62
256
370
-1
  6
ByLayer
 10
178.0561555075596516
 20
34.4375
 30
0.0
 11
198.0561555075596516
 21
34.4375
 31
0.0
  0
LINE
  5
D0
100
AcDbEntity
100
AcDbLine
  8
helper
 62
256
370
-1
  6
ByLayer
 10
178.0561555075596516
 20
63.625
 30
0.0
 11
198.0561555075596516
 21
63.625
 31
0.0
  0
LINE
  5
D1
100
AcDbEntity
100
AcDbLine
  8
helper
 62
256
370
-1
  6
ByLayer
 10
178.0561555075596516
 20
92.8125
 30
0.0
 11
198.0561555075596516
 21
92.8125
 31
0.0
  0
LINE
  5
D2
100
AcDbEntity
100
AcDbLine
  8
contour
 62
256
370
-1
  6
ByLayer
 10
178.0561555075596516
 20
122.0
 30
0.0
 11
198.0561555075596516
 21
122.0
 31
0.0
  0
MTEXT
  5
D3
100
AcDbEntity
100
AcDbMText
  8
contour
 62
256
370
-1
  6
ByLayer
 10
187.3546936758899335
 20
-104.1521245059292795
 30
0.0
 40
8.0
 41
100.0
 71
5
 72
2
  1
0
  7
normallatin1
 50
0.0
 73
0
 44
1.0
  0
MTEXT
  5
D4
100
AcDbEntity
100
AcDbMText
  8
contour
 62
256
370
-1
  6
ByLayer
 10
187.3546936758899335
 20
-73.041452569170275
 30
0.0
 40
8.0
 41
100.0
 71
5
 72
2
  1
25
  7
normallatin1
 50
0.0
 73
0
 44
1.0
  0
MTEXT
  5
D5
100
AcDbEntity
100
AcDbMText
  8
contour
 62
256
370
-1
  6
ByLayer
 10
187.720701581028294
 20
-16.6762351778657063
 30
0.0
 40
8.0
 41
100.0
 71
5
 72
2
  1
75
  7
normallatin1
 50
0.0
 73
0
 44
1.0
  0
MTEXT
  5
D6
100
AcDbEntity
100
AcDbMText
  8
contour
 62
256
370
-1
  6
ByLayer
 10
188.086709486166626
 20
41.1530138339922189
 30
0.0
 40
8.0
 41
100.0
 71
5
 72
2
  1
125
  7
normallatin1
 50
0.0
 73
0
 44
1.0
  0
MTEXT
  5
D7
100
AcDbEntity
100
AcDbMText
  8
contour
 62
256
370
-1
  6
ByLayer
 10
187.720701581028294
 20
69.7016304347828424
 30
0.0
 40
8.0
 41
100.0
 71
5
 72
2
  1
150
  7
normallatin1
 50
0.0
 73
0
 44
1.0
  0
MTEXT
  5
D8
100
AcDbEntity
100
AcDbMText
  8
contour
 62
256
370
-1
  6
ByLayer
 10
187.3546936758899335
 20
100.4462944664035149
 30
0.0
 40
8.0
 41
100.0
 71
5
 72
2
  1
175
  7
normallatin1
 50
0.0
 73
0
 44
1.0
  0
MTEXT
  5
D9
100
AcDbEntity
100
AcDbMText
  8
contour
 62
256
370
-1
  6
ByLayer
 10
187.5010968379457097
 20
116.3310375494077391
 30
0.0
 40
8.0
 41
100.0
 71
5
 72
2
  1
200
  7
normallatin1
 50
0.0
 73
0
 44
1.0
  0
MTEXT
  5
DA
100
AcDbEntity
100
AcDbMText
  8
contour
 62
256
370
-1
  6
ByLayer
 10
126.4037944664031841
 20
10.0414229249011875
 30
0.0
 40
4.0
 41
100.0
 71
5
 72
0
  1
464mm\Pcircumference
  7
normallatin1
 50
90.0
 73
1
 44
1.0
  0
MTEXT
  5
DB
100
AcDbEntity
100
AcDbMText
  8
contour
 62
256
370
-1
  6
ByLayer
 10
145.0099604743083148
 20
10.3367588932806349
 30
0.0
 40
4.0
 41
100.0
 71
5
 72
0
  1
465mm\Pcircumference
  7
normallatin1
 50
90.0
 73
1
 44
1.0
  0
MTEXT
  5
DC
100
AcDbEntity
100
AcDbMText
  8
contour
 62
256
370
-1
  6
ByLayer
 10
165.9788142292490249
 20
10.927430830039528
 30
0.0
 40
4.0
 41
100.0
 71
5
 72
0
  1
466mm\Pcircumference
  7
normallatin1
 50
90.0
 73
1
 44
1.0
  0
MTEXT
  5
DD
100
AcDbEntity
100
AcDbMText
  8
contour
 62
256
370
-1
  6
ByLayer
 10
187.2430039525692109
 20
10.927430830039528
 30
0.0
 40
4.0
 41
100.0
 71
5
 72
0
  1
467mm\Pcircumference
  7
normallatin1
 50
90.0
 73
1
 44
1.0
  0
ENDSEC
  0
SECTION
  2
OBJECTS
  0
DICTIONARY
  5
C
100
AcDbDictionary
280
0
281
1
  3
ACAD_GROUP
350
D
  3
ACAD_LAYOUT
350
1A
  3
ACAD_MLINESTYLE
350
17
  3
ACAD_PLOTSETTINGS
350
19
  3
ACAD_PLOTSTYLENAME
350
E
  3
AcDbVariableDictionary
350
DE
  0
DICTIONARY
  5
D
100
AcDbDictionary
280
0
281
1
  0
ACDBDICTIONARYWDFLT
  5
E
100
AcDbDictionary
281
1
  3
Normal
350
F
100
AcDbDictionaryWithDefault
340
F
  0
ACDBPLACEHOLDER
  5
F
  0
DICTIONARY
  5
17
100
AcDbDictionary
280
0
281
1
  3
Standard
350
18
  0
MLINESTYLE
  5
18
100
AcDbMlineStyle
  2
STANDARD
 70
0
  3

 62
256
 51
90.0
 52
90.0
 71
2
 49
0.5
 62
256
  6
BYLAYER
 49
-0.5
 62
256
  6
BYLAYER
  0
DICTIONARY
  5
19
100
AcDbDictionary
280
0
281
1
  0
DICTIONARY
  5
1A
100
AcDbDictionary
281
1
  3
Layout1
350
1E
  3
Layout2
350
26
  3
Model
350
22
  0
LAYOUT
  5
1E
100
AcDbPlotSettings
  1

  2
C:\Program Files\AutoCAD 2002\plotters\DWF ePlot (optimized for plotting).pc3
  4

  6

 40
0.0
 41
0.0
 42
0.0
 43
0.0
 44
0.0
 45
0.0
 46
0.0
 47
0.0
 48
0.0
 49
0.0
140
0.0
141
0.0
142
1.0
143
1.0
 70
688
 72
0
 73
0
 74
5
  7

 75
16
147
1.0
148
0.0
149
0.0
100
AcDbLayout
  1
Layout1
 70
1
 71
1
 10
0.0
 20
0.0
 11
420.0
 21
297.0
 12
0.0
 22
0.0
 32
0.0
 14
100000000000000000000.0
 24
100000000000000000000.0
 34
100000000000000000000.0
 15
-100000000000000000000.0
 25
-100000000000000000000.0
 35
-100000000000000000000.0
146
0.0
 13
0.0
 23
0.0
 33
0.0
 16
1.0
 26
0.0
 36
0.0
 17
0.0
 27
1.0
 37
0.0
 76
0
330
1B
  0
LAYOUT
  5
22
100
AcDbPlotSettings
  1

  2
C:\Program Files\AutoCAD 2002\plotters\DWF ePlot (optimized for plotting).pc3
  4

  6

 40
0.0
 41
0.0
 42
0.0
 43
0.0
 44
0.0
 45
0.0
 46
0.0
 47
0.0
 48
0.0
 49
0.0
140
0.0
141
0.0
142
1.0
143
1.0
 70
1712
 72
0
 73
0
 74
0
  7

 75
0
147
1.0
148
0.0
149
0.0
100
AcDbLayout
  1
Model
 70
1
 71
0
 10
0.0
 20
0.0
 11
12.0
 21
9.0
 12
0.0
 22
0.0
 32
0.0
 14
0.0
 24
0.0
 34
0.0
 15
0.0
 25
0.0
 35
0.0
146
0.0
 13
0.0
 23
0.0
 33
0.0
 16
1.0
 26
0.0
 36
0.0
 17
0.0
 27
1.0
 37
0.0
 76
0
330
1F
  0
LAYOUT
  5
26
100
AcDbPlotSettings
  1

  2
C:\Program Files\AutoCAD 2002\plotters\DWF ePlot (optimized for plotting).pc3
  4

  6

 40
0.0
 41
0.0
 42
0.0
 43
0.0
 44
0.0
 45
0.0
 46
0.0
 47
0.0
 48
0.0
 49
0.0
140
0.0
141
0.0
142
1.0
143
1.0
 70
688
 72
0
 73
0
 74
5
  7

 75
16
147
1.0
148
0.0
149
0.0
100
AcDbLayout
  1
Layout2
 70
1
 71
2
 10
0.0
 20
0.0
 11
12.0
 21
9.0
 12
0.0
 22
0.0
 32
0.0
 14
0.0
 24
0.0
 34
0.0
 15
0.0
 25
0.0
 35
0.0
146
0.0
 13
0.0
 23
0.0
 33
0.0
 16
1.0
 26
0.0
 36
0.0
 17
0.0
 27
1.0
 37
0.0
 76
0
330
23
  0
DICTIONARY
  5
DE
100
AcDbDictionary
281
1
  3
DIMASSOC
350
E0
  3
HIDETEXT
350
DF
  0
DICTIONARYVAR
  5
DF
100
DictionaryVariables
280
0
  1
2
  0
DICTIONARYVAR
  5
E0
100
DictionaryVariables
280
0
  1
1
  0
ENDSEC
  0
EOF
