999
dxflib 2.0.4.0
  0
SECTION
  2
HEADER
  9
$ACADVER
  1
AC1015
  9
$HANDSEED
  5
FFFF
  9
$DIMASZ
 40
2.5
  9
$DIMGAP
 40
0.625
  9
$DIMEXO
 40
0.625
  9
$INSUNITS
 70
4
  9
$DIMTXT
 40
2.5
  9
$DIMSTYLE
  2
Standard
  9
$PLIMMAX
 10
210.0
 20
297.0
  9
$PLIMMIN
 10
0.0
 20
0.0
  9
$PINSBASE
 10
175.6479481641467828
 20
145.5
 30
0.0
  9
$DIMEXE
 40
1.25
  0
ENDSEC
  0
SECTION
  2
TABLES
  0
TABLE
  2
VPORT
  5
8
100
AcDbSymbolTable
 70
1
  0
VPORT
  5
30
100
AcDbSymbolTableRecord
100
AcDbViewportTableRecord
  2
*Active
 70
0
 10
0.0
 20
0.0
 11
1.0
 21
1.0
 12
286.3055555555554861
 22
148.5
 13
0.0
 23
0.0
 14
10.0
 24
10.0
 15
10.0
 25
10.0
 16
0.0
 26
0.0
 36
1.0
 17
0.0
 27
0.0
 37
0.0
 40
297.0
 41
1.92798353909465
 42
50.0
 43
0.0
 44
0.0
 50
0.0
 51
0.0
 71
0
 72
100
 73
1
 74
3
 75
1
 76
1
 77
0
 78
0
281
0
 65
1
110
0.0
120
0.0
130
0.0
111
1.0
121
0.0
131
0.0
112
0.0
122
1.0
132
0.0
 79
0
146
0.0
  0
ENDTAB
  0
TABLE
  2
LTYPE
  5
5
100
AcDbSymbolTable
 70
21
  0
LTYPE
  5
14
100
AcDbSymbolTableRecord
100
AcDbLinetypeTableRecord
  2
ByBlock
 70
0
  3

 72
65
 73
0
 40
0.0
  0
LTYPE
  5
15
100
AcDbSymbolTableRecord
100
AcDbLinetypeTableRecord
  2
ByLayer
 70
0
  3

 72
65
 73
0
 40
0.0
  0
LTYPE
  5
16
100
AcDbSymbolTableRecord
100
AcDbLinetypeTableRecord
  2
CONTINUOUS
 70
0
  3
Solid line
 72
65
 73
0
 40
0.0
  0
LTYPE
  5
31
100
AcDbSymbolTableRecord
100
AcDbLinetypeTableRecord
  2
DOT
 70
0
  3
Dot . . . . . . . . . . . . . . . . . . . . . .
 72
65
 73
2
 40
6.3499999999999996
 49
0.0
 74
0
 49
-6.3499999999999996
 74
0
  0
LTYPE
  5
32
100
AcDbSymbolTableRecord
100
AcDbLinetypeTableRecord
  2
DOT2
 70
0
  3
Dot (.5x) .....................................
 72
65
 73
2
 40
3.1749999999999998
 49
0.0
 74
0
 49
-3.1749999999999998
 74
0
  0
LTYPE
  5
33
100
AcDbSymbolTableRecord
100
AcDbLinetypeTableRecord
  2
DOTX2
 70
0
  3
Dot (2x) .  .  .  .  .  .  .  .  .  .  .  .  .
 72
65
 73
2
 40
12.6999999999999993
 49
0.0
 74
0
 49
-12.6999999999999993
 74
0
  0
LTYPE
  5
34
100
AcDbSymbolTableRecord
100
AcDbLinetypeTableRecord
  2
DASHED
 70
0
  3
Dashed __ __ __ __ __ __ __ __ __ __ __ __ __ _
 72
65
 73
2
 40
19.0500000000000007
 49
12.6999999999999993
 74
0
 49
-6.3499999999999996
 74
0
  0
LTYPE
  5
35
100
AcDbSymbolTableRecord
100
AcDbLinetypeTableRecord
  2
DASHED2
 70
0
  3
Dashed (.5x) _ _ _ _ _ _ _ _ _ _ _ _ _ _ _ _ _
 72
65
 73
2
 40
9.5250000000000004
 49
6.3499999999999996
 74
0
 49
-3.1749999999999998
 74
0
  0
LTYPE
  5
36
100
AcDbSymbolTableRecord
100
AcDbLinetypeTableRecord
  2
DASHEDX2
 70
0
  3
Dashed (2x) ____  ____  ____  ____  ____  ___
 72
65
 73
2
 40
38.1000000000000014
 49
25.3999999999999986
 74
0
 49
-12.6999999999999993
 74
0
  0
LTYPE
  5
37
100
AcDbSymbolTableRecord
100
AcDbLinetypeTableRecord
  2
DASHDOT
 70
0
  3
Dash dot __ . __ . __ . __ . __ . __ . __ . __
 72
65
 73
4
 40
25.3999999999999986
 49
12.6999999999999993
 74
0
 49
-6.3499999999999996
 74
0
 49
0.0
 74
0
 49
-6.3499999999999996
 74
0
  0
LTYPE
  5
38
100
AcDbSymbolTableRecord
100
AcDbLinetypeTableRecord
  2
DASHDOT2
 70
0
  3
Dash dot (.5x) _._._._._._._._._._._._._._._.
 72
65
 73
4
 40
12.6999999999999993
 49
6.3499999999999996
 74
0
 49
-3.1749999999999998
 74
0
 49
0.0
 74
0
 49
-3.1749999999999998
 74
0
  0
LTYPE
  5
39
100
AcDbSymbolTableRecord
100
AcDbLinetypeTableRecord
  2
DASHDOTX2
 70
0
  3
Dash dot (2x) ____  .  ____  .  ____  .  ___
 72
65
 73
4
 40
50.7999999999999972
 49
25.3999999999999986
 74
0
 49
-12.6999999999999993
 74
0
 49
0.0
 74
0
 49
-12.6999999999999993
 74
0
  0
LTYPE
  5
3A
100
AcDbSymbolTableRecord
100
AcDbLinetypeTableRecord
  2
DIVIDE
 70
0
  3
Divide ____ . . ____ . . ____ . . ____ . . ____
 72
65
 73
6
 40
31.75
 49
12.6999999999999993
 74
0
 49
-6.3499999999999996
 74
0
 49
0.0
 74
0
 49
-6.3499999999999996
 74
0
 49
0.0
 74
0
 49
-6.3499999999999996
 74
0
  0
LTYPE
  5
3B
100
AcDbSymbolTableRecord
100
AcDbLinetypeTableRecord
  2
DIVIDE2
 70
0
  3
Divide (.5x) __..__..__..__..__..__..__..__.._
 72
65
 73
6
 40
15.875
 49
6.3499999999999996
 74
0
 49
-3.1749999999999998
 74
0
 49
0.0
 74
0
 49
-3.1749999999999998
 74
0
 49
0.0
 74
0
 49
-3.1749999999999998
 74
0
  0
LTYPE
  5
3C
100
AcDbSymbolTableRecord
100
AcDbLinetypeTableRecord
  2
DIVIDEX2
 70
0
  3
Divide (2x) ________  .  .  ________  .  .  _
 72
65
 73
6
 40
63.5
 49
25.3999999999999986
 74
0
 49
-12.6999999999999993
 74
0
 49
0.0
 74
0
 49
-12.6999999999999993
 74
0
 49
0.0
 74
0
 49
-12.6999999999999993
 74
0
  0
LTYPE
  5
3D
100
AcDbSymbolTableRecord
100
AcDbLinetypeTableRecord
  2
CENTER
 70
0
  3
Center ____ _ ____ _ ____ _ ____ _ ____ _ ____
 72
65
 73
4
 40
50.7999999999999972
 49
31.75
 74
0
 49
-6.3499999999999996
 74
0
 49
6.3499999999999996
 74
0
 49
-6.3499999999999996
 74
0
  0
LTYPE
  5
3E
100
AcDbSymbolTableRecord
100
AcDbLinetypeTableRecord
  2
CENTER2
 70
0
  3
Center (.5x) ___ _ ___ _ ___ _ ___ _ ___ _ ___
 72
65
 73
4
 40
28.5749999999999993
 49
19.0500000000000007
 74
0
 49
-3.1749999999999998
 74
0
 49
3.1749999999999998
 74
0
 49
-3.1749999999999998
 74
0
  0
LTYPE
  5
3F
100
AcDbSymbolTableRecord
100
AcDbLinetypeTableRecord
  2
CENTERX2
 70
0
  3
Center (2x) ________  __  ________  __  _____
 72
65
 73
4
 40
101.5999999999999943
 49
63.5
 74
0
 49
-12.6999999999999993
 74
0
 49
12.6999999999999993
 74
0
 49
-12.6999999999999993
 74
0
  0
LTYPE
  5
40
100
AcDbSymbolTableRecord
100
AcDbLinetypeTableRecord
  2
BORDER
 70
0
  3
Border __ __ . __ __ . __ __ . __ __ . __ __ .
 72
65
 73
6
 40
44.4500000000000028
 49
12.6999999999999993
 74
0
 49
-6.3499999999999996
 74
0
 49
12.6999999999999993
 74
0
 49
-6.3499999999999996
 74
0
 49
0.0
 74
0
 49
-6.3499999999999996
 74
0
  0
LTYPE
  5
41
100
AcDbSymbolTableRecord
100
AcDbLinetypeTableRecord
  2
BORDER2
 70
0
  3
Border (.5x) __.__.__.__.__.__.__.__.__.__.__.
 72
65
 73
6
 40
22.2250000000000014
 49
6.3499999999999996
 74
0
 49
-3.1749999999999998
 74
0
 49
6.3499999999999996
 74
0
 49
-3.1749999999999998
 74
0
 49
0.0
 74
0
 49
-3.1749999999999998
 74
0
  0
LTYPE
  5
42
100
AcDbSymbolTableRecord
100
AcDbLinetypeTableRecord
  2
BORDERX2
 70
0
  3
Border (2x) ____  ____  .  ____  ____  .  ___
 72
65
 73
6
 40
88.9000000000000057
 49
25.3999999999999986
 74
0
 49
-12.6999999999999993
 74
0
 49
25.3999999999999986
 74
0
 49
-12.6999999999999993
 74
0
 49
0.0
 74
0
 49
-12.6999999999999993
 74
0
  0
ENDTAB
  0
TABLE
  2
LAYER
  5
2
100
AcDbSymbolTable
 70
3
  0
LAYER
  5
10
100
AcDbSymbolTableRecord
100
AcDbLayerTableRecord
  2
0
 70
0
 62
7
  6
CONTINUOUS
370
0
390
F
  0
LAYER
  5
43
100
AcDbSymbolTableRecord
100
AcDbLayerTableRecord
  2
contour
 70
0
 62
7
  6
CONTINUOUS
370
35
390
F
  0
LAYER
  5
44
100
AcDbSymbolTableRecord
100
AcDbLayerTableRecord
  2
helper
 70
0
 62
7
  6
CONTINUOUS
370
13
390
F
  0
ENDTAB
  0
TABLE
  2
STYLE
  5
3
100
AcDbSymbolTable
 70
1
  0
STYLE
  5
11
100
AcDbSymbolTableRecord
100
AcDbTextStyleTableRecord
  2
Standard
 70
0
 40
0.0
 41
1.0
 50
0.0
 71
0
 42
2.5
  3
txt
  4

  0
ENDTAB
  0
TABLE
  2
VIEW
  5
6
100
AcDbSymbolTable
 70
0
  0
ENDTAB
  0
TABLE
  2
UCS
  5
7
100
AcDbSymbolTable
 70
0
  0
ENDTAB
  0
TABLE
  2
APPID
  5
9
100
AcDbSymbolTable
 70
1
  0
APPID
  5
12
100
AcDbSymbolTableRecord
100
AcDbRegAppTableRecord
  2
ACAD
 70
0
  0
ENDTAB
  0
TABLE
  2
DIMSTYLE
  5
A
100
AcDbSymbolTable
 70
1
100
AcDbDimStyleTable
 71
0
  0
DIMSTYLE
105
27
100
AcDbSymbolTableRecord
100
AcDbDimStyleTableRecord
  2
Standard
 41
2.5
 42
0.625
 43
3.75
 44
1.25
 70
0
 73
0
 74
0
 77
1
 78
8
140
2.5
141
2.5
143
0.03937007874016
147
0.625
171
3
172
1
271
2
272
2
274
3
278
44
283
0
284
8
340
11
  0
ENDTAB
  0
TABLE
  2
BLOCK_RECORD
  5
1
100
AcDbSymbolTable
 70
1
  0
BLOCK_RECORD
  5
1F
100
AcDbSymbolTableRecord
100
AcDbBlockTableRecord
  2
*Model_Space
340
22
  0
BLOCK_RECORD
  5
1B
100
AcDbSymbolTableRecord
100
AcDbBlockTableRecord
  2
*Paper_Space
340
1E
  0
BLOCK_RECORD
  5
23
100
AcDbSymbolTableRecord
100
AcDbBlockTableRecord
  2
*Paper_Space0
340
26
  0
ENDTAB
  0
ENDSEC
  0
SECTION
  2
BLOCKS
  0
BLOCK
  5
20
100
AcDbEntity
  8
0
100
AcDbBlockBegin
  2
*Model_Space
 70
0
 10
0.0
 20
0.0
 30
0.0
  3
*Model_Space
  1

  0
ENDBLK
  5
21
100
AcDbEntity
  8
0
100
AcDbBlockEnd
  0
BLOCK
  5
1C
100
AcDbEntity
 67
1
  8
0
100
AcDbBlockBegin
  2
*Paper_Space
 70
0
 10
0.0
 20
0.0
 30
0.0
  3
*Paper_Space
  1

  0
ENDBLK
  5
1D
100
AcDbEntity
 67
1
  8
0
100
AcDbBlockEnd
  0
BLOCK
  5
24
100
AcDbEntity
  8
0
100
AcDbBlockBegin
  2
*Paper_Space0
 70
0
 10
0.0
 20
0.0
 30
0.0
  3
*Paper_Space0
  1

  0
ENDBLK
  5
25
100
AcDbEntity
  8
0
100
AcDbBlockEnd
  0
ENDSEC
  0
SECTION
  2
ENTITIES
  0
LINE
  5
45
100
AcDbEntity
100
AcDbLine
  8
contour
 62
256
370
-1
  6
ByLayer
 10
-99.7840172786177391
 20
-111.5
 30
0.0
 11
-80.2159827213822609
 21
-111.5
 31
0.0
  0
LINE
  5
46
100
AcDbEntity
100
AcDbLine
  8
helper
 62
256
370
-1
  6
ByLayer
 10
-99.7840172786177391
 20
86.6875
 30
0.0
 11
-80.2159827213822609
 21
86.6875
 31
0.0
  0
LINE
  5
47
100
AcDbEntity
100
AcDbLine
  8
helper
 62
256
370
-1
  6
ByLayer
 10
-99.7840172786177391
 20
58.375
 30
0.0
 11
-80.2159827213822609
 21
58.375
 31
0.0
  0
LINE
  5
48
100
AcDbEntity
100
AcDbLine
  8
helper
 62
256
370
-1
  6
ByLayer
 10
-99.7840172786177391
 20
30.0625
 30
0.0
 11
-80.2159827213822609
 21
30.0625
 31
0.0
  0
LINE
  5
49
100
AcDbEntity
100
AcDbLine
  8
helper
 62
256
370
-1
  6
ByLayer
 10
-99.7840172786177391
 20
-26.5625
 30
0.0
 11
-80.2159827213822609
 21
-26.5625
 31
0.0
  0
LINE
  5
4A
100
AcDbEntity
100
AcDbLine
  8
helper
 62
256
370
-1
  6
ByLayer
 10
-99.7840172786177391
 20
-83.1875
 30
0.0
 11
-80.2159827213822609
 21
-83.1875
 31
0.0
  0
LINE
  5
4B
100
AcDbEntity
100
AcDbLine
  8
contour
 62
256
370
-1
  6
ByLayer
 10
-99.7840172786177391
 20
-111.5
 30
0.0
 11
-99.7840172786177391
 21
115.0
 31
0.0
  0
LINE
  5
4C
100
AcDbEntity
100
AcDbLine
  8
contour
 62
256
370
-1
  6
ByLayer
 10
-80.2159827213822609
 20
-111.5
 30
0.0
 11
-80.2159827213822609
 21
115.0
 31
0.0
  0
MTEXT
  5
4D
100
AcDbEntity
100
AcDbMText
  8
contour
 62
256
370
-1
  6
ByLayer
 10
-89.0624999995363851
 20
-76.0937499998966018
 30
0.0
 40
8.0
 41
100.0
 71
5
 72
2
  1
25
  7
normallatin1
 50
0.0
 73
1
 44
1.0
  0
MTEXT
  5
4E
100
AcDbEntity
100
AcDbMText
  8
contour
 62
256
370
-1
  6
ByLayer
 10
-89.8437499995366124
 20
-105.3906249999041052
 30
0.0
 40
8.0
 41
100.0
 71
5
 72
2
  1
0
  7
normallatin1
 50
0.0
 73
1
 44
1.0
  0
MTEXT
  5
4F
100
AcDbEntity
100
AcDbMText
  8
contour
 62
256
370
-1
  6
ByLayer
 10
-90.6249999995368398
 20
-17.4999999998815952
 30
0.0
 40
8.0
 41
100.0
 71
5
 72
2
  1
75
  7
normallatin1
 50
0.0
 73
1
 44
1.0
  0
MTEXT
  5
50
100
AcDbEntity
100
AcDbMText
  8
contour
 62
256
370
-1
  6
ByLayer
 10
-91.0156249995368398
 20
37.9687500001325589
 30
0.0
 40
8.0
 41
100.0
 71
5
 72
2
  1
125
  7
normallatin1
 50
0.0
 73
1
 44
1.0
  0
MTEXT
  5
51
100
AcDbEntity
100
AcDbMText
  8
contour
 62
256
370
-1
  6
ByLayer
 10
-91.0156249995368398
 20
64.9218750001394937
 30
0.0
 40
8.0
 41
100.0
 71
5
 72
2
  1
150
  7
normallatin1
 50
0.0
 73
1
 44
1.0
  0
MTEXT
  5
52
100
AcDbEntity
100
AcDbMText
  8
contour
 62
256
370
-1
  6
ByLayer
 10
-90.2343749995366124
 20
93.4375000001467697
 30
0.0
 40
8.0
 41
100.0
 71
5
 72
2
  1
175
  7
normallatin1
 50
0.0
 73
1
 44
1.0
  0
MTEXT
  5
53
100
AcDbEntity
100
AcDbMText
  8
contour
 62
256
370
-1
  6
ByLayer
 10
-89.8437499995366124
 20
109.0625000001508624
 30
0.0
 40
8.0
 41
100.0
 71
5
 72
2
  1
200
  7
normallatin1
 50
0.0
 73
1
 44
1.0
  0
MTEXT
  5
54
100
AcDbEntity
100
AcDbMText
  8
contour
 62
256
370
-1
  6
ByLayer
 10
-90.9179687495227427
 20
7.7929687501286935
 30
0.0
 40
4.0
 41
100.0
 71
5
 72
2
  1
453mm\Pcircumference
  7
normallatin1
 50
90.0
 73
1
 44
1.0
  0
LINE
  5
55
100
AcDbEntity
100
AcDbLine
  8
contour
 62
256
370
-1
  6
ByLayer
 10
-80.2159827213822609
 20
-111.5
 30
0.0
 11
-60.6047516198705125
 21
-111.5
 31
0.0
  0
LINE
  5
56
100
AcDbEntity
100
AcDbLine
  8
helper
 62
256
370
-1
  6
ByLayer
 10
-80.2159827213822609
 20
87.125
 30
0.0
 11
-60.6047516198705125
 21
87.125
 31
0.0
  0
LINE
  5
57
100
AcDbEntity
100
AcDbLine
  8
helper
 62
256
370
-1
  6
ByLayer
 10
-80.2159827213822609
 20
58.75
 30
0.0
 11
-60.6047516198705125
 21
58.75
 31
0.0
  0
LINE
  5
58
100
AcDbEntity
100
AcDbLine
  8
helper
 62
256
370
-1
  6
ByLayer
 10
-80.2159827213822609
 20
30.375
 30
0.0
 11
-60.6047516198705125
 21
30.375
 31
0.0
  0
LINE
  5
59
100
AcDbEntity
100
AcDbLine
  8
helper
 62
256
370
-1
  6
ByLayer
 10
-80.2159827213822609
 20
-26.375
 30
0.0
 11
-60.6047516198705125
 21
-26.375
 31
0.0
  0
LINE
  5
5A
100
AcDbEntity
100
AcDbLine
  8
helper
 62
256
370
-1
  6
ByLayer
 10
-80.2159827213822609
 20
-83.125
 30
0.0
 11
-60.6047516198705125
 21
-83.125
 31
0.0
  0
LINE
  5
5B
100
AcDbEntity
100
AcDbLine
  8
contour
 62
256
370
-1
  6
ByLayer
 10
-80.2159827213822609
 20
-111.5
 30
0.0
 11
-80.2159827213822609
 21
115.5
 31
0.0
  0
LINE
  5
5C
100
AcDbEntity
100
AcDbLine
  8
contour
 62
256
370
-1
  6
ByLayer
 10
-60.6047516198705125
 20
-111.5
 30
0.0
 11
-60.6047516198705125
 21
115.5
 31
0.0
  0
MTEXT
  5
5D
100
AcDbEntity
100
AcDbMText
  8
contour
 62
256
370
-1
  6
ByLayer
 10
-69.8634921701757321
 20
-77.265624999896886
 30
0.0
 40
8.0
 41
100.0
 71
5
 72
2
  1
25
  7
normallatin1
 50
0.0
 73
1
 44
1.0
  0
MTEXT
  5
5E
100
AcDbEntity
100
AcDbMText
  8
contour
 62
256
370
-1
  6
ByLayer
 10
-70.2541171701757321
 20
-105.3906249999041052
 30
0.0
 40
8.0
 41
100.0
 71
5
 72
2
  1
0
  7
normallatin1
 50
0.0
 73
1
 44
1.0
  0
MTEXT
  5
5F
100
AcDbEntity
100
AcDbMText
  8
contour
 62
256
370
-1
  6
ByLayer
 10
-68.6916171701752774
 20
-17.8906249998817088
 30
0.0
 40
8.0
 41
100.0
 71
5
 72
2
  1
75
  7
normallatin1
 50
0.0
 73
1
 44
1.0
  0
MTEXT
  5
60
100
AcDbEntity
100
AcDbMText
  8
contour
 62
256
370
-1
  6
ByLayer
 10
-70.2541171701757321
 20
37.5781250001325589
 30
0.0
 40
8.0
 41
100.0
 71
5
 72
2
  1
125
  7
normallatin1
 50
0.0
 73
1
 44
1.0
  0
MTEXT
  5
61
100
AcDbEntity
100
AcDbMText
  8
contour
 62
256
370
-1
  6
ByLayer
 10
-70.2541171701757321
 20
65.3125000001396074
 30
0.0
 40
8.0
 41
100.0
 71
5
 72
2
  1
150
  7
normallatin1
 50
0.0
 73
1
 44
1.0
  0
MTEXT
  5
62
100
AcDbEntity
100
AcDbMText
  8
contour
 62
256
370
-1
  6
ByLayer
 10
-70.2541171701757321
 20
93.0468750001467697
 30
0.0
 40
8.0
 41
100.0
 71
5
 72
2
  1
175
  7
normallatin1
 50
0.0
 73
1
 44
1.0
  0
MTEXT
  5
63
100
AcDbEntity
100
AcDbMText
  8
contour
 62
256
370
-1
  6
ByLayer
 10
-69.8634921701757321
 20
109.4531250001508624
 30
0.0
 40
8.0
 41
100.0
 71
5
 72
2
  1
200
  7
normallatin1
 50
0.0
 73
1
 44
1.0
  0
MTEXT
  5
64
100
AcDbEntity
100
AcDbMText
  8
contour
 62
256
370
-1
  6
ByLayer
 10
-71.6213046701623171
 20
8.7695312501289777
 30
0.0
 40
4.0
 41
100.0
 71
5
 72
2
  1
454mm\Pcircumference
  7
normallatin1
 50
90.0
 73
1
 44
1.0
  0
LINE
  5
65
100
AcDbEntity
100
AcDbLine
  8
contour
 62
256
370
-1
  6
ByLayer
 10
-60.6047516198705125
 20
-111.5
 30
0.0
 11
-40.9503239740820391
 21
-111.5
 31
0.0
  0
LINE
  5
66
100
AcDbEntity
100
AcDbLine
  8
helper
 62
256
370
-1
  6
ByLayer
 10
-60.6047516198705125
 20
87.5625
 30
0.0
 11
-40.9503239740820391
 21
87.5625
 31
0.0
  0
LINE
  5
67
100
AcDbEntity
100
AcDbLine
  8
helper
 62
256
370
-1
  6
ByLayer
 10
-60.6047516198705125
 20
59.125
 30
0.0
 11
-40.9503239740820391
 21
59.125
 31
0.0
  0
LINE
  5
68
100
AcDbEntity
100
AcDbLine
  8
helper
 62
256
370
-1
  6
ByLayer
 10
-60.6047516198705125
 20
30.6875
 30
0.0
 11
-40.9503239740820391
 21
30.6875
 31
0.0
  0
LINE
  5
69
100
AcDbEntity
100
AcDbLine
  8
helper
 62
256
370
-1
  6
ByLayer
 10
-60.6047516198705125
 20
-26.1875
 30
0.0
 11
-40.9503239740820391
 21
-26.1875
 31
0.0
  0
LINE
  5
6A
100
AcDbEntity
100
AcDbLine
  8
helper
 62
256
370
-1
  6
ByLayer
 10
-60.6047516198705125
 20
-83.0625
 30
0.0
 11
-40.9503239740820391
 21
-83.0625
 31
0.0
  0
LINE
  5
6B
100
AcDbEntity
100
AcDbLine
  8
contour
 62
256
370
-1
  6
ByLayer
 10
-60.6047516198705125
 20
-111.5
 30
0.0
 11
-60.6047516198705125
 21
116.0
 31
0.0
  0
LINE
  5
6C
100
AcDbEntity
100
AcDbLine
  8
contour
 62
256
370
-1
  6
ByLayer
 10
-40.9503239740820391
 20
-111.5
 30
0.0
 11
-40.9503239740820391
 21
116.0
 31
0.0
  0
MTEXT
  5
6D
100
AcDbEntity
100
AcDbMText
  8
contour
 62
256
370
-1
  6
ByLayer
 10
-50.2306627965383541
 20
-76.4843749998967155
 30
0.0
 40
8.0
 41
100.0
 71
5
 72
2
  1
25
  7
normallatin1
 50
0.0
 73
1
 44
1.0
  0
MTEXT
  5
6E
100
AcDbEntity
100
AcDbMText
  8
contour
 62
256
370
-1
  6
ByLayer
 10
-50.6212877965383541
 20
-104.6093749999038778
 30
0.0
 40
8.0
 41
100.0
 71
5
 72
2
  1
0
  7
normallatin1
 50
0.0
 73
1
 44
1.0
  0
MTEXT
  5
6F
100
AcDbEntity
100
AcDbMText
  8
contour
 62
256
370
-1
  6
ByLayer
 10
-51.4025377965385815
 20
-18.2812499998817657
 30
0.0
 40
8.0
 41
100.0
 71
5
 72
2
  1
75
  7
normallatin1
 50
0.0
 73
1
 44
1.0
  0
MTEXT
  5
70
100
AcDbEntity
100
AcDbMText
  8
contour
 62
256
370
-1
  6
ByLayer
 10
-50.2306627965383541
 20
37.1875000001324452
 30
0.0
 40
8.0
 41
100.0
 71
5
 72
2
  1
125
  7
normallatin1
 50
0.0
 73
1
 44
1.0
  0
MTEXT
  5
71
100
AcDbEntity
100
AcDbMText
  8
contour
 62
256
370
-1
  6
ByLayer
 10
-51.0119127965385815
 20
66.0937500001398348
 30
0.0
 40
8.0
 41
100.0
 71
5
 72
2
  1
150
  7
normallatin1
 50
0.0
 73
1
 44
1.0
  0
MTEXT
  5
72
100
AcDbEntity
100
AcDbMText
  8
contour
 62
256
370
-1
  6
ByLayer
 10
-51.0119127965385815
 20
94.6093750001471108
 30
0.0
 40
8.0
 41
100.0
 71
5
 72
2
  1
175
  7
normallatin1
 50
0.0
 73
1
 44
1.0
  0
MTEXT
  5
73
100
AcDbEntity
100
AcDbMText
  8
contour
 62
256
370
-1
  6
ByLayer
 10
-51.4025377965385815
 20
110.2343750001510898
 30
0.0
 40
8.0
 41
100.0
 71
5
 72
2
  1
200
  7
normallatin1
 50
0.0
 73
1
 44
1.0
  0
MTEXT
  5
74
100
AcDbEntity
100
AcDbMText
  8
contour
 62
256
370
-1
  6
ByLayer
 10
-51.3048815465251664
 20
8.7695312501289777
 30
0.0
 40
4.0
 41
100.0
 71
5
 72
2
  1
455mm\Pcircumference
  7
normallatin1
 50
90.0
 73
1
 44
1.0
  0
LINE
  5
75
100
AcDbEntity
100
AcDbLine
  8
contour
 62
256
370
-1
  6
ByLayer
 10
-40.9503239740820391
 20
-111.5
 30
0.0
 11
-21.2526997840172953
 21
-111.5
 31
0.0
  0
LINE
  5
76
100
AcDbEntity
100
AcDbLine
  8
helper
 62
256
370
-1
  6
ByLayer
 10
-40.9503239740820391
 20
88.0
 30
0.0
 11
-21.2526997840172953
 21
88.0
 31
0.0
  0
LINE
  5
77
100
AcDbEntity
100
AcDbLine
  8
helper
 62
256
370
-1
  6
ByLayer
 10
-40.9503239740820391
 20
59.5
 30
0.0
 11
-21.2526997840172953
 21
59.5
 31
0.0
  0
LINE
  5
78
100
AcDbEntity
100
AcDbLine
  8
helper
 62
256
370
-1
  6
ByLayer
 10
-40.9503239740820391
 20
31.0
 30
0.0
 11
-21.2526997840172953
 21
31.0
 31
0.0
  0
LINE
  5
79
100
AcDbEntity
100
AcDbLine
  8
helper
 62
256
370
-1
  6
ByLayer
 10
-40.9503239740820391
 20
-26.0
 30
0.0
 11
-21.2526997840172953
 21
-26.0
 31
0.0
  0
LINE
  5
7A
100
AcDbEntity
100
AcDbLine
  8
helper
 62
256
370
-1
  6
ByLayer
 10
-40.9503239740820391
 20
-83.0
 30
0.0
 11
-21.2526997840172953
 21
-83.0
 31
0.0
  0
LINE
  5
7B
100
AcDbEntity
100
AcDbLine
  8
contour
 62
256
370
-1
  6
ByLayer
 10
-40.9503239740820391
 20
-111.5
 30
0.0
 11
-40.9503239740820391
 21
116.5
 31
0.0
  0
LINE
  5
7C
100
AcDbEntity
100
AcDbLine
  8
contour
 62
256
370
-1
  6
ByLayer
 10
-21.2526997840172953
 20
-111.5
 30
0.0
 11
-21.2526997840172953
 21
116.5
 31
0.0
  0
MTEXT
  5
7D
100
AcDbEntity
100
AcDbMText
  8
contour
 62
256
370
-1
  6
ByLayer
 10
-30.9452618786247058
 20
-76.0937499998966018
 30
0.0
 40
8.0
 41
100.0
 71
5
 72
2
  1
25
  7
normallatin1
 50
0.0
 73
1
 44
1.0
  0
MTEXT
  5
7E
100
AcDbEntity
100
AcDbMText
  8
contour
 62
256
370
-1
  6
ByLayer
 10
-30.5546368786244784
 20
-104.2187499999037641
 30
0.0
 40
8.0
 41
100.0
 71
5
 72
2
  1
0
  7
normallatin1
 50
0.0
 73
1
 44
1.0
  0
MTEXT
  5
7F
100
AcDbEntity
100
AcDbMText
  8
contour
 62
256
370
-1
  6
ByLayer
 10
-30.9452618786247058
 20
-17.8906249998817088
 30
0.0
 40
8.0
 41
100.0
 71
5
 72
2
  1
75
  7
normallatin1
 50
0.0
 73
1
 44
1.0
  0
MTEXT
  5
80
100
AcDbEntity
100
AcDbMText
  8
contour
 62
256
370
-1
  6
ByLayer
 10
-31.3358868786247058
 20
37.5781250001325589
 30
0.0
 40
8.0
 41
100.0
 71
5
 72
2
  1
125
  7
normallatin1
 50
0.0
 73
1
 44
1.0
  0
MTEXT
  5
81
100
AcDbEntity
100
AcDbMText
  8
contour
 62
256
370
-1
  6
ByLayer
 10
-31.3358868786247058
 20
66.0937500001398348
 30
0.0
 40
8.0
 41
100.0
 71
5
 72
2
  1
150
  7
normallatin1
 50
0.0
 73
1
 44
1.0
  0
MTEXT
  5
82
100
AcDbEntity
100
AcDbMText
  8
contour
 62
256
370
-1
  6
ByLayer
 10
-31.3358868786247058
 20
94.6093750001471108
 30
0.0
 40
8.0
 41
100.0
 71
5
 72
2
  1
175
  7
normallatin1
 50
0.0
 73
1
 44
1.0
  0
MTEXT
  5
83
100
AcDbEntity
100
AcDbMText
  8
contour
 62
256
370
-1
  6
ByLayer
 10
-30.9452618786247058
 20
111.0156250001513172
 30
0.0
 40
8.0
 41
100.0
 71
5
 72
2
  1
200
  7
normallatin1
 50
0.0
 73
1
 44
1.0
  0
MTEXT
  5
84
100
AcDbEntity
100
AcDbMText
  8
contour
 62
256
370
-1
  6
ByLayer
 10
-32.4101056286119729
 20
9.7460937501292051
 30
0.0
 40
4.0
 41
100.0
 71
5
 72
2
  1
456mm\Pcircumference
  7
normallatin1
 50
90.0
 73
1
 44
1.0
  0
LINE
  5
85
100
AcDbEntity
100
AcDbLine
  8
contour
 62
256
370
-1
  6
ByLayer
 10
-21.2526997840172953
 20
-111.5
 30
0.0
 11
-1.5118790496758265
 21
-111.5
 31
0.0
  0
LINE
  5
86
100
AcDbEntity
100
AcDbLine
  8
helper
 62
256
370
-1
  6
ByLayer
 10
-21.2526997840172953
 20
88.4375
 30
0.0
 11
-1.5118790496758265
 21
88.4375
 31
0.0
  0
LINE
  5
87
100
AcDbEntity
100
AcDbLine
  8
helper
 62
256
370
-1
  6
ByLayer
 10
-21.2526997840172953
 20
59.875
 30
0.0
 11
-1.5118790496758265
 21
59.875
 31
0.0
  0
LINE
  5
88
100
AcDbEntity
100
AcDbLine
  8
helper
 62
256
370
-1
  6
ByLayer
 10
-21.2526997840172953
 20
31.3125
 30
0.0
 11
-1.5118790496758265
 21
31.3125
 31
0.0
  0
LINE
  5
89
100
AcDbEntity
100
AcDbLine
  8
helper
 62
256
370
-1
  6
ByLayer
 10
-21.2526997840172953
 20
-25.8125
 30
0.0
 11
-1.5118790496758265
 21
-25.8125
 31
0.0
  0
LINE
  5
8A
100
AcDbEntity
100
AcDbLine
  8
helper
 62
256
370
-1
  6
ByLayer
 10
-21.2526997840172953
 20
-82.9375
 30
0.0
 11
-1.5118790496758265
 21
-82.9375
 31
0.0
  0
LINE
  5
8B
100
AcDbEntity
100
AcDbLine
  8
contour
 62
256
370
-1
  6
ByLayer
 10
-21.2526997840172953
 20
-111.5
 30
0.0
 11
-21.2526997840172953
 21
117.0
 31
0.0
  0
LINE
  5
8C
100
AcDbEntity
100
AcDbLine
  8
contour
 62
256
370
-1
  6
ByLayer
 10
-1.5118790496758265
 20
-111.5
 30
0.0
 11
-1.5118790496758265
 21
117.0
 31
0.0
  0
MTEXT
  5
8D
100
AcDbEntity
100
AcDbMText
  8
contour
 62
256
370
-1
  6
ByLayer
 10
-11.2260394164343325
 20
-75.7031249998964881
 30
0.0
 40
8.0
 41
100.0
 71
5
 72
2
  1
25
  7
normallatin1
 50
0.0
 73
1
 44
1.0
  0
MTEXT
  5
8E
100
AcDbEntity
100
AcDbMText
  8
contour
 62
256
370
-1
  6
ByLayer
 10
-12.0072894164345598
 20
-103.4374999999035936
 30
0.0
 40
8.0
 41
100.0
 71
5
 72
2
  1
0
  7
normallatin1
 50
0.0
 73
1
 44
1.0
  0
MTEXT
  5
8F
100
AcDbEntity
100
AcDbMText
  8
contour
 62
256
370
-1
  6
ByLayer
 10
-11.6166644164343325
 20
-18.6718749998818794
 30
0.0
 40
8.0
 41
100.0
 71
5
 72
2
  1
75
  7
normallatin1
 50
0.0
 73
1
 44
1.0
  0
MTEXT
  5
90
100
AcDbEntity
100
AcDbMText
  8
contour
 62
256
370
-1
  6
ByLayer
 10
-11.6166644164343325
 20
38.3593750001326725
 30
0.0
 40
8.0
 41
100.0
 71
5
 72
2
  1
125
  7
normallatin1
 50
0.0
 73
1
 44
1.0
  0
MTEXT
  5
91
100
AcDbEntity
100
AcDbMText
  8
contour
 62
256
370
-1
  6
ByLayer
 10
-11.6166644164343325
 20
67.2656250001400622
 30
0.0
 40
8.0
 41
100.0
 71
5
 72
2
  1
150
  7
normallatin1
 50
0.0
 73
1
 44
1.0
  0
MTEXT
  5
92
100
AcDbEntity
100
AcDbMText
  8
contour
 62
256
370
-1
  6
ByLayer
 10
-12.0072894164345598
 20
95.0000000001472245
 30
0.0
 40
8.0
 41
100.0
 71
5
 72
2
  1
175
  7
normallatin1
 50
0.0
 73
1
 44
1.0
  0
MTEXT
  5
93
100
AcDbEntity
100
AcDbMText
  8
contour
 62
256
370
-1
  6
ByLayer
 10
-11.2260394164343325
 20
111.4062500001514309
 30
0.0
 40
8.0
 41
100.0
 71
5
 72
2
  1
200
  7
normallatin1
 50
0.0
 73
1
 44
1.0
  0
MTEXT
  5
94
100
AcDbEntity
100
AcDbMText
  8
contour
 62
256
370
-1
  6
ByLayer
 10
-12.9838519164220543
 20
8.281250000128864
 30
0.0
 40
4.0
 41
100.0
 71
5
 72
2
  1
457mm\Pcircumference
  7
normallatin1
 50
90.0
 73
1
 44
1.0
  0
LINE
  5
95
100
AcDbEntity
100
AcDbLine
  8
contour
 62
256
370
-1
  6
ByLayer
 10
-1.5118790496758265
 20
117.5
 30
0.0
 11
18.4881209503241735
 21
117.5
 31
0.0
  0
LINE
  5
96
100
AcDbEntity
100
AcDbLine
  8
contour
 62
256
370
-1
  6
ByLayer
 10
18.4881209503241735
 20
-111.5
 30
0.0
 11
18.4881209503241735
 21
117.5
 31
0.0
  0
LINE
  5
97
100
AcDbEntity
100
AcDbLine
  8
contour
 62
256
370
-1
  6
ByLayer
 10
-1.5118790496758265
 20
-111.5
 30
0.0
 11
-1.5118790496758265
 21
117.5
 31
0.0
  0
LINE
  5
98
100
AcDbEntity
100
AcDbLine
  8
contour
 62
256
370
-1
  6
ByLayer
 10
-1.5118790496758265
 20
-111.5
 30
0.0
 11
18.4881209503241735
 21
-111.5
 31
0.0
  0
LINE
  5
99
100
AcDbEntity
100
AcDbLine
  8
helper
 62
256
370
-1
  6
ByLayer
 10
-1.5118790496758265
 20
-82.875
 30
0.0
 11
18.4881209503241735
 21
-82.875
 31
0.0
  0
LINE
  5
9A
100
AcDbEntity
100
AcDbLine
  8
helper
 62
256
370
-1
  6
ByLayer
 10
-1.5118790496758265
 20
-25.625
 30
0.0
 11
18.4881209503241735
 21
-25.625
 31
0.0
  0
LINE
  5
9B
100
AcDbEntity
100
AcDbLine
  8
helper
 62
256
370
-1
  6
ByLayer
 10
-1.5118790496758265
 20
31.625
 30
0.0
 11
18.4881209503241735
 21
31.625
 31
0.0
  0
LINE
  5
9C
100
AcDbEntity
100
AcDbLine
  8
helper
 62
256
370
-1
  6
ByLayer
 10
-1.5118790496758265
 20
60.25
 30
0.0
 11
18.4881209503241735
 21
60.25
 31
0.0
  0
LINE
  5
9D
100
AcDbEntity
100
AcDbLine
  8
helper
 62
256
370
-1
  6
ByLayer
 10
-1.5118790496758265
 20
88.875
 30
0.0
 11
18.4881209503241735
 21
88.875
 31
0.0
  0
MTEXT
  5
9E
100
AcDbEntity
100
AcDbMText
  8
contour
 62
256
370
-1
  6
ByLayer
 10
8.3514022003678292
 20
-74.7851562499707256
 30
0.0
 40
8.0
 41
100.0
 71
5
 72
2
  1
25
  7
normallatin1
 50
0.0
 73
1
 44
1.0
  0
MTEXT
  5
9F
100
AcDbEntity
100
AcDbMText
  8
contour
 62
256
370
-1
  6
ByLayer
 10
9.3279647003680566
 20
-105.0585937499729425
 30
0.0
 40
8.0
 41
100.0
 71
5
 72
2
  1
0
  7
normallatin1
 50
0.0
 73
1
 44
1.0
  0
MTEXT
  5
A0
100
AcDbEntity
100
AcDbMText
  8
contour
 62
256
370
-1
  6
ByLayer
 10
8.688120950369921
 20
-19.8999999999654165
 30
0.0
 40
8.0
 41
100.0
 71
5
 72
2
  1
75
  7
normallatin1
 50
0.0
 73
1
 44
1.0
  0
MTEXT
  5
A1
100
AcDbEntity
100
AcDbMText
  8
contour
 62
256
370
-1
  6
ByLayer
 10
8.4881209503696482
 20
37.7000000000389264
 30
0.0
 40
8.0
 41
100.0
 71
5
 72
2
  1
125
  7
normallatin1
 50
0.0
 73
1
 44
1.0
  0
MTEXT
  5
A2
100
AcDbEntity
100
AcDbMText
  8
contour
 62
256
370
-1
  6
ByLayer
 10
8.688120950369921
 20
66.7000000000410864
 30
0.0
 40
8.0
 41
100.0
 71
5
 72
2
  1
150
  7
normallatin1
 50
0.0
 73
1
 44
1.0
  0
MTEXT
  5
A3
100
AcDbEntity
100
AcDbMText
  8
contour
 62
256
370
-1
  6
ByLayer
 10
8.4881209503696482
 20
94.9000000000431783
 30
0.0
 40
8.0
 41
100.0
 71
5
 72
2
  1
175
  7
normallatin1
 50
0.0
 73
1
 44
1.0
  0
MTEXT
  5
A4
100
AcDbEntity
100
AcDbMText
  8
contour
 62
256
370
-1
  6
ByLayer
 10
8.8881209503697391
 20
111.5000000000444516
 30
0.0
 40
8.0
 41
100.0
 71
5
 72
2
  1
200
  7
normallatin1
 50
0.0
 73
1
 44
1.0
  0
MTEXT
  5
A5
100
AcDbEntity
100
AcDbMText
  8
contour
 62
256
370
-1
  6
ByLayer
 10
7.2381209503741957
 20
7.2500000000401883
 30
0.0
 40
4.0
 41
100.0
 71
5
 72
2
  1
458mm\Pcircumference
  7
normallatin1
 50
90.0
 73
1
 44
1.0
  0
LINE
  5
A6
100
AcDbEntity
100
AcDbLine
  8
contour
 62
256
370
-1
  6
ByLayer
 10
-99.7840172786177391
 20
115.0
 30
0.0
 11
-80.2159827213822609
 21
115.0
 31
0.0
  0
LINE
  5
A7
100
AcDbEntity
100
AcDbLine
  8
contour
 62
256
370
-1
  6
ByLayer
 10
-80.2159827213822609
 20
115.5
 30
0.0
 11
-60.6047516198705125
 21
115.5
 31
0.0
  0
LINE
  5
A8
100
AcDbEntity
100
AcDbLine
  8
contour
 62
256
370
-1
  6
ByLayer
 10
-60.6047516198705125
 20
116.0
 30
0.0
 11
-40.9503239740820391
 21
116.0
 31
0.0
  0
LINE
  5
A9
100
AcDbEntity
100
AcDbLine
  8
contour
 62
256
370
-1
  6
ByLayer
 10
-40.9503239740820391
 20
116.5
 30
0.0
 11
-21.2526997840172953
 21
116.5
 31
0.0
  0
LINE
  5
AA
100
AcDbEntity
100
AcDbLine
  8
contour
 62
256
370
-1
  6
ByLayer
 10
-21.2526997840172953
 20
117.0
 30
0.0
 11
-1.5118790496758265
 21
117.0
 31
0.0
  0
LINE
  5
AB
100
AcDbEntity
100
AcDbLine
  8
contour
 62
256
370
-1
  6
ByLayer
 10
-119.7840172786177391
 20
-111.5
 30
0.0
 11
-119.7840172786177391
 21
114.5
 31
0.0
  0
LINE
  5
AC
100
AcDbEntity
100
AcDbLine
  8
contour
 62
256
370
-1
  6
ByLayer
 10
-99.7840172786177391
 20
-111.5
 30
0.0
 11
-99.7840172786177391
 21
114.5
 31
0.0
  0
LINE
  5
AD
100
AcDbEntity
100
AcDbLine
  8
contour
 62
256
370
-1
  6
ByLayer
 10
-119.7840172786177391
 20
114.5
 30
0.0
 11
-99.7840172786177391
 21
114.5
 31
0.0
  0
LINE
  5
AE
100
AcDbEntity
100
AcDbLine
  8
helper
 62
256
370
-1
  6
ByLayer
 10
-119.7840172786177391
 20
86.25
 30
0.0
 11
-99.7840172786177391
 21
86.25
 31
0.0
  0
LINE
  5
AF
100
AcDbEntity
100
AcDbLine
  8
helper
 62
256
370
-1
  6
ByLayer
 10
-119.7840172786177391
 20
58.0
 30
0.0
 11
-99.7840172786177391
 21
58.0
 31
0.0
  0
LINE
  5
B0
100
AcDbEntity
100
AcDbLine
  8
helper
 62
256
370
-1
  6
ByLayer
 10
-119.7840172786177391
 20
29.75
 30
0.0
 11
-99.7840172786177391
 21
29.75
 31
0.0
  0
LINE
  5
B1
100
AcDbEntity
100
AcDbLine
  8
helper
 62
256
370
-1
  6
ByLayer
 10
-119.7840172786177391
 20
-26.75
 30
0.0
 11
-99.7840172786177391
 21
-26.75
 31
0.0
  0
LINE
  5
B2
100
AcDbEntity
100
AcDbLine
  8
helper
 62
256
370
-1
  6
ByLayer
 10
-119.7840172786177391
 20
-83.25
 30
0.0
 11
-99.7840172786177391
 21
-83.25
 31
0.0
  0
LINE
  5
B3
100
AcDbEntity
100
AcDbLine
  8
contour
 62
256
370
-1
  6
ByLayer
 10
-119.7840172786177391
 20
-111.5
 30
0.0
 11
-99.7840172786177391
 21
-111.5
 31
0.0
  0
MTEXT
  5
B4
100
AcDbEntity
100
AcDbMText
  8
contour
 62
256
370
-1
  6
ByLayer
 10
-109.2980237154164342
 20
-104.6633992094869967
 30
0.0
 40
8.0
 41
100.0
 71
5
 72
2
  1
0
  7
normallatin1
 50
0.0
 73
0
 44
1.0
  0
MTEXT
  5
B5
100
AcDbEntity
100
AcDbMText
  8
contour
 62
256
370
-1
  6
ByLayer
 10
-108.7149407114638677
 20
-76.3838735177871655
 30
0.0
 40
8.0
 41
100.0
 71
5
 72
2
  1
25
  7
normallatin1
 50
0.0
 73
0
 44
1.0
  0
MTEXT
  5
B6
100
AcDbEntity
100
AcDbMText
  8
contour
 62
256
370
-1
  6
ByLayer
 10
-110.1726482213452982
 20
-20.6994466403163706
 30
0.0
 40
8.0
 41
100.0
 71
5
 72
2
  1
75
  7
normallatin1
 50
0.0
 73
0
 44
1.0
  0
MTEXT
  5
B7
100
AcDbEntity
100
AcDbMText
  8
contour
 62
256
370
-1
  6
ByLayer
 10
-110.4641897233215957
 20
35.8596047430832883
 30
0.0
 40
8.0
 41
100.0
 71
5
 72
2
  1
125
  7
normallatin1
 50
0.0
 73
0
 44
1.0
  0
MTEXT
  5
B8
100
AcDbEntity
100
AcDbMText
  8
contour
 62
256
370
-1
  6
ByLayer
 10
-109.8811067193690008
 20
64.1391304347831124
 30
0.0
 40
8.0
 41
100.0
 71
5
 72
2
  1
150
  7
normallatin1
 50
0.0
 73
0
 44
1.0
  0
MTEXT
  5
B9
100
AcDbEntity
100
AcDbMText
  8
contour
 62
256
370
-1
  6
ByLayer
 10
-110.1726482213452982
 20
92.7101976284592268
 30
0.0
 40
8.0
 41
100.0
 71
5
 72
2
  1
175
  7
normallatin1
 50
0.0
 73
0
 44
1.0
  0
LINE
  5
BA
100
AcDbEntity
100
AcDbLine
  8
contour
 62
256
370
-1
  6
ByLayer
 10
-139.7840172786177391
 20
-111.5
 30
0.0
 11
-139.7840172786177391
 21
114.0
 31
0.0
  0
LINE
  5
BB
100
AcDbEntity
100
AcDbLine
  8
contour
 62
256
370
-1
  6
ByLayer
 10
-119.7840172786177391
 20
-111.5
 30
0.0
 11
-119.7840172786177391
 21
114.0
 31
0.0
  0
LINE
  5
BC
100
AcDbEntity
100
AcDbLine
  8
contour
 62
256
370
-1
  6
ByLayer
 10
-139.7840172786177391
 20
-111.5
 30
0.0
 11
-119.7840172786177391
 21
-111.5
 31
0.0
  0
LINE
  5
BD
100
AcDbEntity
100
AcDbLine
  8
helper
 62
256
370
-1
  6
ByLayer
 10
-139.7840172786177391
 20
-83.3125
 30
0.0
 11
-119.7840172786177391
 21
-83.3125
 31
0.0
  0
LINE
  5
BE
100
AcDbEntity
100
AcDbLine
  8
helper
 62
256
370
-1
  6
ByLayer
 10
-139.7840172786177391
 20
-26.9375
 30
0.0
 11
-119.7840172786177391
 21
-26.9375
 31
0.0
  0
LINE
  5
BF
100
AcDbEntity
100
AcDbLine
  8
helper
 62
256
370
-1
  6
ByLayer
 10
-139.7840172786177391
 20
29.4375
 30
0.0
 11
-119.7840172786177391
 21
29.4375
 31
0.0
  0
LINE
  5
C0
100
AcDbEntity
100
AcDbLine
  8
helper
 62
256
370
-1
  6
ByLayer
 10
-139.7840172786177391
 20
57.625
 30
0.0
 11
-119.7840172786177391
 21
57.625
 31
0.0
  0
LINE
  5
C1
100
AcDbEntity
100
AcDbLine
  8
helper
 62
256
370
-1
  6
ByLayer
 10
-139.7840172786177391
 20
85.8125
 30
0.0
 11
-119.7840172786177391
 21
85.8125
 31
0.0
  0
LINE
  5
C2
100
AcDbEntity
100
AcDbLine
  8
contour
 62
256
370
-1
  6
ByLayer
 10
-139.7840172786177391
 20
114.0
 30
0.0
 11
-119.7840172786177391
 21
114.0
 31
0.0
  0
MTEXT
  5
C3
100
AcDbEntity
100
AcDbMText
  8
contour
 62
256
370
-1
  6
ByLayer
 10
-128.3645849802388739
 20
-104.3718577075107135
 30
0.0
 40
8.0
 41
100.0
 71
5
 72
2
  1
0
  7
normallatin1
 50
0.0
 73
0
 44
1.0
  0
MTEXT
  5
C4
100
AcDbEntity
100
AcDbMText
  8
contour
 62
256
370
-1
  6
ByLayer
 10
-129.5307509881440353
 20
-76.3838735177871655
 30
0.0
 40
8.0
 41
100.0
 71
5
 72
2
  1
25
  7
normallatin1
 50
0.0
 73
0
 44
1.0
  0
MTEXT
  5
C5
100
AcDbEntity
100
AcDbMText
  8
contour
 62
256
370
-1
  6
ByLayer
 10
-129.5307509881440353
 20
-21.2825296442689442
 30
0.0
 40
8.0
 41
100.0
 71
5
 72
2
  1
75
  7
normallatin1
 50
0.0
 73
0
 44
1.0
  0
MTEXT
  5
C6
100
AcDbEntity
100
AcDbMText
  8
contour
 62
256
370
-1
  6
ByLayer
 10
-130.1138339920966018
 20
35.8596047430832883
 30
0.0
 40
8.0
 41
100.0
 71
5
 72
2
  1
125
  7
normallatin1
 50
0.0
 73
0
 44
1.0
  0
MTEXT
  5
C7
100
AcDbEntity
100
AcDbMText
  8
contour
 62
256
370
-1
  6
ByLayer
 10
-130.1138339920966018
 20
63.8475889328068291
 30
0.0
 40
8.0
 41
100.0
 71
5
 72
2
  1
150
  7
normallatin1
 50
0.0
 73
0
 44
1.0
  0
MTEXT
  5
C8
100
AcDbEntity
100
AcDbMText
  8
contour
 62
256
370
-1
  6
ByLayer
 10
-129.8222924901203328
 20
91.5440316205540796
 30
0.0
 40
8.0
 41
100.0
 71
5
 72
2
  1
175
  7
normallatin1
 50
0.0
 73
0
 44
1.0
  0
MTEXT
  5
C9
100
AcDbEntity
100
AcDbMText
  8
contour
 62
256
370
-1
  6
ByLayer
 10
-130.1138339920966018
 20
108.1618972332024384
 30
0.0
 40
8.0
 41
100.0
 71
5
 72
2
  1
200
  7
normallatin1
 50
0.0
 73
0
 44
1.0
  0
LINE
  5
CA
100
AcDbEntity
100
AcDbLine
  8
contour
 62
256
370
-1
  6
ByLayer
 10
-159.7840172786177391
 20
-111.5
 30
0.0
 11
-159.7840172786177391
 21
113.5
 31
0.0
  0
LINE
  5
CB
100
AcDbEntity
100
AcDbLine
  8
contour
 62
256
370
-1
  6
ByLayer
 10
-139.7840172786177391
 20
-111.5
 30
0.0
 11
-139.7840172786177391
 21
113.5
 31
0.0
  0
LINE
  5
CC
100
AcDbEntity
100
AcDbLine
  8
contour
 62
256
370
-1
  6
ByLayer
 10
-159.7840172786177391
 20
113.5
 30
0.0
 11
-139.7840172786177391
 21
113.5
 31
0.0
  0
LINE
  5
CD
100
AcDbEntity
100
AcDbLine
  8
helper
 62
256
370
-1
  6
ByLayer
 10
-159.7840172786177391
 20
85.375
 30
0.0
 11
-139.7840172786177391
 21
85.375
 31
0.0
  0
LINE
  5
CE
100
AcDbEntity
100
AcDbLine
  8
helper
 62
256
370
-1
  6
ByLayer
 10
-159.7840172786177391
 20
57.25
 30
0.0
 11
-139.7840172786177391
 21
57.25
 31
0.0
  0
LINE
  5
CF
100
AcDbEntity
100
AcDbLine
  8
helper
 62
256
370
-1
  6
ByLayer
 10
-159.7840172786177391
 20
29.125
 30
0.0
 11
-139.7840172786177391
 21
29.125
 31
0.0
  0
LINE
  5
D0
100
AcDbEntity
100
AcDbLine
  8
helper
 62
256
370
-1
  6
ByLayer
 10
-159.7840172786177391
 20
-27.125
 30
0.0
 11
-139.7840172786177391
 21
-27.125
 31
0.0
  0
LINE
  5
D1
100
AcDbEntity
100
AcDbLine
  8
helper
 62
256
370
-1
  6
ByLayer
 10
-159.7840172786177391
 20
-83.375
 30
0.0
 11
-139.7840172786177391
 21
-83.375
 31
0.0
  0
LINE
  5
D2
100
AcDbEntity
100
AcDbLine
  8
contour
 62
256
370
-1
  6
ByLayer
 10
-159.7840172786177391
 20
-111.5
 30
0.0
 11
-139.7840172786177391
 21
-111.5
 31
0.0
  0
MTEXT
  5
D3
100
AcDbEntity
100
AcDbMText
  8
contour
 62
256
370
-1
  6
ByLayer
 10
-149.4719367588953105
 20
-104.3718577075107135
 30
0.0
 40
8.0
 41
100.0
 71
5
 72
2
  1
0
  7
normallatin1
 50
0.0
 73
0
 44
1.0
  0
MTEXT
  5
D4
100
AcDbEntity
100
AcDbMText
  8
contour
 62
256
370
-1
  6
ByLayer
 10
-149.7634782608716364
 20
-76.9669565217397462
 30
0.0
 40
8.0
 41
100.0
 71
5
 72
2
  1
25
  7
normallatin1
 50
0.0
 73
0
 44
1.0
  0
MTEXT
  5
D5
100
AcDbEntity
100
AcDbMText
  8
contour
 62
256
370
-1
  6
ByLayer
 10
-149.7634782608716364
 20
-21.2825296442689442
 30
0.0
 40
8.0
 41
100.0
 71
5
 72
2
  1
75
  7
normallatin1
 50
0.0
 73
0
 44
1.0
  0
MTEXT
  5
D6
100
AcDbEntity
100
AcDbMText
  8
contour
 62
256
370
-1
  6
ByLayer
 10
-149.4719367588953105
 20
35.2765217391307146
 30
0.0
 40
8.0
 41
100.0
 71
5
 72
2
  1
125
  7
normallatin1
 50
0.0
 73
0
 44
1.0
  0
MTEXT
  5
D7
100
AcDbEntity
100
AcDbMText
  8
contour
 62
256
370
-1
  6
ByLayer
 10
-150.3465612648241745
 20
63.5560474308305459
 30
0.0
 40
8.0
 41
100.0
 71
5
 72
2
  1
150
  7
normallatin1
 50
0.0
 73
0
 44
1.0
  0
MTEXT
  5
D8
100
AcDbEntity
100
AcDbMText
  8
contour
 62
256
370
-1
  6
ByLayer
 10
-150.0550197628479054
 20
91.5440316205540796
 30
0.0
 40
8.0
 41
100.0
 71
5
 72
2
  1
175
  7
normallatin1
 50
0.0
 73
0
 44
1.0
  0
MTEXT
  5
D9
100
AcDbEntity
100
AcDbMText
  8
contour
 62
256
370
-1
  6
ByLayer
 10
-150.3465612648241745
 20
107.8703557312261552
 30
0.0
 40
8.0
 41
100.0
 71
5
 72
2
  1
200
  7
normallatin1
 50
0.0
 73
0
 44
1.0
  0
MTEXT
  5
DA
100
AcDbEntity
100
AcDbMText
  8
contour
 62
256
370
-1
  6
ByLayer
 10
-109.9111462450608201
 20
108.4534387351793754
 30
0.0
 40
8.0
 41
100.0
 71
5
 72
2
  1
200
  7
normallatin1
 50
0.0
 73
0
 44
1.0
  0
MTEXT
  5
DB
100
AcDbEntity
100
AcDbMText
  8
contour
 62
256
370
-1
  6
ByLayer
 10
-111.3688537549423643
 20
6.413913043478356
 30
0.0
 40
4.0
 41
100.0
 71
5
 72
2
  1
452mm\Pcircumference
  7
normallatin1
 50
90.0
 73
0
 44
1.0
  0
MTEXT
  5
DC
100
AcDbEntity
100
AcDbMText
  8
contour
 62
256
370
-1
  6
ByLayer
 10
-130.9021343873537262
 20
6.413913043478356
 30
0.0
 40
4.0
 41
100.0
 71
5
 72
2
  1
451mm\Pcircumference
  7
normallatin1
 50
90.0
 73
0
 44
1.0
  0
MTEXT
  5
DD
100
AcDbEntity
100
AcDbMText
  8
contour
 62
256
370
-1
  6
ByLayer
 10
-150.1438735177887907
 20
5.8308300395257779
 30
0.0
 40
4.0
 41
100.0
 71
5
 72
2
  1
450mm\Pcircumference
  7
normallatin1
 50
90.0
 73
0
 44
1.0
  0
ENDSEC
  0
SECTION
  2
OBJECTS
  0
DICTIONARY
  5
C
100
AcDbDictionary
280
0
281
1
  3
ACAD_GROUP
350
D
  3
ACAD_LAYOUT
350
1A
  3
ACAD_MLINESTYLE
350
17
  3
ACAD_PLOTSETTINGS
350
19
  3
ACAD_PLOTSTYLENAME
350
E
  3
AcDbVariableDictionary
350
DE
  0
DICTIONARY
  5
D
100
AcDbDictionary
280
0
281
1
  0
ACDBDICTIONARYWDFLT
  5
E
100
AcDbDictionary
281
1
  3
Normal
350
F
100
AcDbDictionaryWithDefault
340
F
  0
ACDBPLACEHOLDER
  5
F
  0
DICTIONARY
  5
17
100
AcDbDictionary
280
0
281
1
  3
Standard
350
18
  0
MLINESTYLE
  5
18
100
AcDbMlineStyle
  2
STANDARD
 70
0
  3

 62
256
 51
90.0
 52
90.0
 71
2
 49
0.5
 62
256
  6
BYLAYER
 49
-0.5
 62
256
  6
BYLAYER
  0
DICTIONARY
  5
19
100
AcDbDictionary
280
0
281
1
  0
DICTIONARY
  5
1A
100
AcDbDictionary
281
1
  3
Layout1
350
1E
  3
Layout2
350
26
  3
Model
350
22
  0
LAYOUT
  5
1E
100
AcDbPlotSettings
  1

  2
C:\Program Files\AutoCAD 2002\plotters\DWF ePlot (optimized for plotting).pc3
  4

  6

 40
0.0
 41
0.0
 42
0.0
 43
0.0
 44
0.0
 45
0.0
 46
0.0
 47
0.0
 48
0.0
 49
0.0
140
0.0
141
0.0
142
1.0
143
1.0
 70
688
 72
0
 73
0
 74
5
  7

 75
16
147
1.0
148
0.0
149
0.0
100
AcDbLayout
  1
Layout1
 70
1
 71
1
 10
0.0
 20
0.0
 11
420.0
 21
297.0
 12
0.0
 22
0.0
 32
0.0
 14
100000000000000000000.0
 24
100000000000000000000.0
 34
100000000000000000000.0
 15
-100000000000000000000.0
 25
-100000000000000000000.0
 35
-100000000000000000000.0
146
0.0
 13
0.0
 23
0.0
 33
0.0
 16
1.0
 26
0.0
 36
0.0
 17
0.0
 27
1.0
 37
0.0
 76
0
330
1B
  0
LAYOUT
  5
22
100
AcDbPlotSettings
  1

  2
C:\Program Files\AutoCAD 2002\plotters\DWF ePlot (optimized for plotting).pc3
  4

  6

 40
0.0
 41
0.0
 42
0.0
 43
0.0
 44
0.0
 45
0.0
 46
0.0
 47
0.0
 48
0.0
 49
0.0
140
0.0
141
0.0
142
1.0
143
1.0
 70
1712
 72
0
 73
0
 74
0
  7

 75
0
147
1.0
148
0.0
149
0.0
100
AcDbLayout
  1
Model
 70
1
 71
0
 10
0.0
 20
0.0
 11
12.0
 21
9.0
 12
0.0
 22
0.0
 32
0.0
 14
0.0
 24
0.0
 34
0.0
 15
0.0
 25
0.0
 35
0.0
146
0.0
 13
0.0
 23
0.0
 33
0.0
 16
1.0
 26
0.0
 36
0.0
 17
0.0
 27
1.0
 37
0.0
 76
0
330
1F
  0
LAYOUT
  5
26
100
AcDbPlotSettings
  1

  2
C:\Program Files\AutoCAD 2002\plotters\DWF ePlot (optimized for plotting).pc3
  4

  6

 40
0.0
 41
0.0
 42
0.0
 43
0.0
 44
0.0
 45
0.0
 46
0.0
 47
0.0
 48
0.0
 49
0.0
140
0.0
141
0.0
142
1.0
143
1.0
 70
688
 72
0
 73
0
 74
5
  7

 75
16
147
1.0
148
0.0
149
0.0
100
AcDbLayout
  1
Layout2
 70
1
 71
2
 10
0.0
 20
0.0
 11
12.0
 21
9.0
 12
0.0
 22
0.0
 32
0.0
 14
0.0
 24
0.0
 34
0.0
 15
0.0
 25
0.0
 35
0.0
146
0.0
 13
0.0
 23
0.0
 33
0.0
 16
1.0
 26
0.0
 36
0.0
 17
0.0
 27
1.0
 37
0.0
 76
0
330
23
  0
DICTIONARY
  5
DE
100
AcDbDictionary
281
1
  3
DIMASSOC
350
E0
  3
HIDETEXT
350
DF
  0
DICTIONARYVAR
  5
DF
100
DictionaryVariables
280
0
  1
2
  0
DICTIONARYVAR
  5
E0
100
DictionaryVariables
280
0
  1
1
  0
ENDSEC
  0
EOF
