  0
SECTION
  2
HEADER
  9
$LIMMIN
 10
0.000000
 20
0.000000
  9
$LIMMAX
 10
175.874036
 20
264.833115
  9
$EXTMIN
 10
0.000000
 20
0.000000
  9
$EXTMAX
 10
175.874036
 20
264.833115
  9
$ANGBASE
 50
0.000000
  9
$ANGDIR
 70
0
  9
$INSUNITS
 70
4
  9
$DIMALT
 70
4
  9
$DIMLUNIT
 70
2
  9
$DIMASZ
 40
2.000000
  9
$DIMTXT
 40
3.000000
  9
$DIMRND
 40
0.010000
  9
$DIMEXE
 40
1.000000
  9
$DIMEXO
 40
1.000000
  9
$DIMAUNIT
 70
0
  9
$DIMADEC
 70
2
  9
$GRIDUNIT
 10
0.001000
 20
0.001000
  9
$PLIMMIN
 10
0.000000
 20
0.000000
  9
$PLIMMAX
 10
210.000000
 20
297.000000
  9
$PSVPSCALE
 40
1.000000
  0
ENDSEC
  0
SECTION
  2
TABLES
  0
TABLE
  2
LTYPE
 70
     1
  0
LTYPE
  2
CONTINUOUS
 70
    64
  3
Ausgez
 72
    65
 73
  0
 40
0.000000
  0
ENDTAB
  0
TABLE
  2
LAYER
 70
     1
  0
LAYER
  2
default
 70
    64
 62
7
  6
CONTINUOUS
  0
LAYER
  2
text
 70
    64
 62
7
  6
CONTINUOUS
  0
LAYER
  2
axes
 70
    64
 62
7
  6
DASHDOT
  0
LAYER
  2
invisible
 70
    64
 62
7
  6
DASH
  0
LAYER
  2
contour
 70
    64
 62
7
  6
CONTINUOUS
  0
LAYER
  2
dimensions
 70
    64
 62
7
  6
CONTINUOUS
  0
LAYER
  2
helper
 70
    64
 62
7
  6
CONTINUOUS
  0
ENDTAB
  0
ENDSEC
  0
SECTION
  2
BLOCKS
  0
ENDSEC
  0
SECTION
  2
ENTITIES
  0
LINE
  8
contour
  6
CONTINUOUS
 10
80.000000
 20
210.000000
 11
130.000000
 21
210.000000
 39
3
 62
7
  0
CIRCLE
  8
contour
  6
CONTINUOUS
 10
105.000000
 20
192.000000
 40
5.250000
 39
3
 62
7
  0
CIRCLE
  8
contour
  6
CONTINUOUS
 10
105.000000
 20
40.000000
 40
5.250000
 39
3
 62
7
  0
LINE
  8
contour
  6
CONTINUOUS
 10
80.000000
 20
20.000000
 11
130.000000
 21
20.000000
 39
3
 62
7
  0
LINE
  8
contour
  6
CONTINUOUS
 10
130.000000
 20
210.000000
 11
168.000000
 21
210.000000
 39
3
 62
7
  0
LINE
  8
contour
  6
CONTINUOUS
 10
130.000000
 20
20.000000
 11
168.000000
 21
20.000000
 39
3
 62
7
  0
LINE
  8
contour
  6
CONTINUOUS
 10
168.000000
 20
210.000000
 11
168.000000
 21
20.000000
 39
3
 62
7
  0
LINE
  8
contour
  6
CONTINUOUS
 10
80.000000
 20
210.000000
 11
42.000000
 21
210.000000
 39
3
 62
7
  0
LINE
  8
contour
  6
CONTINUOUS
 10
80.000000
 20
20.000000
 11
42.000000
 21
20.000000
 39
3
 62
7
  0
LINE
  8
contour
  6
CONTINUOUS
 10
42.000000
 20
210.000000
 11
42.000000
 21
20.000000
 39
3
 62
7
  0
TEXT
  8
contour
  6
CONTINUOUS
 10
100.349851
 20
199.762607
 40
10.000000
 50
0.000000
 72
0
  7
Normal#2.000000#6.000000
  1
edge
 39
3
 62
7
  0
TEXT
  8
contour
  6
CONTINUOUS
 10
139.947896
 20
197.391270
 40
10.000000
 50
0.000000
 72
0
  7
Normal#2.000000#6.000000
  1
edge
 39
3
 62
7
  0
TEXT
  8
contour
  6
CONTINUOUS
 10
49.553512
 20
196.061940
 40
10.000000
 50
0.000000
 72
0
  7
Normal#2.000000#6.000000
  1
edge
 39
3
 62
7
  0
LINE
  8
helper
  6
CONTINUOUS
 10
105.000000
 20
210.000000
 11
105.000000
 21
20.000000
 39
1
 62
7
  0
LINE
  8
helper
  6
CONTINUOUS
 10
80.000000
 20
40.000000
 11
130.000000
 21
40.000000
 39
1
 62
7
  0
LINE
  8
helper
  6
CONTINUOUS
 10
80.000000
 20
192.000000
 11
130.000000
 21
192.000000
 39
1
 62
7
  0
LINE
  8
helper
  6
CONTINUOUS
 10
42.000000
 20
170.000000
 11
80.000000
 21
170.000000
 39
1
 62
7
  0
LINE
  8
helper
  6
CONTINUOUS
 10
130.000000
 20
170.000000
 11
168.000000
 21
170.000000
 39
1
 62
7
  0
TEXT
  8
contour
  6
CONTINUOUS
 10
42.906866
 20
152.858742
 40
10.000000
 50
0.000000
 72
0
  7
Normal#2.000000#6.000000
  1
10.5
 39
3
 62
7
  0
TEXT
  8
contour
  6
CONTINUOUS
 10
109.373325
 20
175.457338
 40
10.000000
 50
0.000000
 72
0
  7
Normal#2.000000#6.000000
  1
10.5
 39
3
 62
7
  0
TEXT
  8
contour
  6
CONTINUOUS
 10
131.307257
 20
152.194077
 40
10.000000
 50
0.000000
 72
0
  7
Normal#2.000000#6.000000
  1
10.5
 39
3
 62
7
  0
TEXT
  8
contour
  6
CONTINUOUS
 10
111.367319
 20
49.171066
 40
10.000000
 50
0.000000
 72
0
  7
Normal#2.000000#6.000000
  1
10.5
 39
3
 62
7
  0
LINE
  8
contour
  6
CONTINUOUS
 10
175.874036
 20
264.833115
 11
175.874036
 21
214.833115
 39
3
 62
7
  0
CIRCLE
  8
contour
  6
CONTINUOUS
 10
125.874036
 20
239.833115
 40
5.250000
 39
3
 62
7
  0
LINE
  8
contour
  6
CONTINUOUS
 10
105.874036
 20
214.833115
 11
105.874036
 21
264.833115
 39
3
 62
7
  0
LINE
  8
contour
  6
CONTINUOUS
 10
175.874036
 20
214.833115
 11
105.874036
 21
214.833115
 39
3
 62
7
  0
LINE
  8
contour
  6
CONTINUOUS
 10
105.874036
 20
264.833115
 11
175.874036
 21
264.833115
 39
3
 62
7
  0
LINE
  8
helper
  6
CONTINUOUS
 10
125.874036
 20
214.833115
 11
125.874036
 21
264.833115
 39
1
 62
7
  0
LINE
  8
helper
  6
CONTINUOUS
 10
105.874036
 20
239.833115
 11
175.874036
 21
239.833115
 39
1
 62
7
  0
TEXT
  8
contour
  6
CONTINUOUS
 10
144.356561
 20
244.206440
 40
10.000000
 50
90.000000
 72
0
  7
Normal#2.000000#6.000000
  1
10.5
 39
3
 62
7
  0
TEXT
  8
contour
  6
CONTINUOUS
 10
34.746169
 20
254.123939
 40
10.000000
 50
0.000000
 72
0
  7
Normal#2.000000#6.000000
  1
Chimney
 39
3
 62
7
  0
TEXT
  8
contour
  6
CONTINUOUS
 10
34.746169
 20
240.123939
 40
10.000000
 50
0.000000
 72
0
  7
Normal#2.000000#6.000000
  1
Console
 39
3
 62
7
  0
TEXT
  8
contour
  6
CONTINUOUS
 10
34.746169
 20
226.123939
 40
10.000000
 50
0.000000
 72
0
  7
Normal#2.000000#6.000000
  1
Template
 39
3
 62
7
  0
TEXT
  8
contour
  6
CONTINUOUS
 10
169.773705
 20
227.902745
 40
10.000000
 50
90.000000
 72
0
  7
Normal#2.000000#6.000000
  1
edge
 39
3
 62
7
  0
LINE
  8
invisible
  6
DASH
 10
80.000000
 20
210.000000
 11
80.000000
 21
20.000000
 39
2
 62
7
  0
LINE
  8
invisible
  6
DASH
 10
80.000000
 20
20.000000
 11
130.000000
 21
20.000000
 39
2
 62
7
  0
LINE
  8
invisible
  6
DASH
 10
130.000000
 20
20.000000
 11
130.000000
 21
210.000000
 39
2
 62
7
  0
LINE
  8
helper
  6
CONTINUOUS
 10
80.000000
 20
96.000000
 11
130.000000
 21
96.000000
 39
1
 62
7
  0
LINE
  8
helper
  6
CONTINUOUS
 10
80.000000
 20
135.000000
 11
130.000000
 21
135.000000
 39
1
 62
7
  0
CIRCLE
  8
contour
  6
CONTINUOUS
 10
105.000000
 20
96.000000
 40
2.700000
 39
3
 62
7
  0
CIRCLE
  8
contour
  6
CONTINUOUS
 10
105.000000
 20
135.000000
 40
5.250000
 39
3
 62
7
  0
TEXT
  8
contour
  6
CONTINUOUS
 10
109.488588
 20
117.934851
 40
10.000000
 50
0.000000
 72
0
  7
Normal#2.000000#6.000000
  1
10.5
 39
3
 62
7
  0
TEXT
  8
contour
  6
CONTINUOUS
 10
109.175764
 20
83.836976
 40
10.000000
 50
0.000000
 72
0
  7
Normal#2.000000#6.000000
  1
5.4
 39
3
 62
7
  0
CIRCLE
  8
contour
  6
CONTINUOUS
 10
151.000000
 20
170.000000
 40
5.250000
 39
3
 62
7
  0
LINE
  8
helper
  6
CONTINUOUS
 10
151.000000
 20
210.000000
 11
151.000000
 21
20.000000
 39
1
 62
7
  0
CIRCLE
  8
contour
  6
CONTINUOUS
 10
59.000000
 20
170.000000
 40
5.250000
 39
3
 62
7
  0
LINE
  8
helper
  6
CONTINUOUS
 10
59.000000
 20
210.000000
 11
59.000000
 21
20.000000
 39
1
 62
7
  0
ENDSEC
  0
EOF
