999
dxflib 2.0.4.0
  0
SECTION
  2
HEADER
  9
$ACADVER
  1
AC1015
  9
$HANDSEED
  5
FFFF
  9
$EXTMIN
 10
0.0
 20
0.0
 30
0.0
  9
$DIMASZ
 40
3.0
  9
$DIMADEC
 70
2
  9
$GRIDUNIT
 10
0.001
 20
0.001
  9
$DIMGAP
 40
0.625
  9
$ANGBASE
 50
0.0
  9
$DIMALT
 70
4
  9
$LIMMIN
 10
0.0
 20
0.0
  9
$DIMRND
 40
0.01
  9
$EXTMAX
 10
207.0
 20
290.0
 30
0.0
  9
$INSUNITS
 70
4
  9
$DIMEXO
 40
2.0
  9
$ANGDIR
 70
0
  9
$LIMMAX
 10
207.0
 20
290.0
  9
$DIMLUNIT
 70
2
  9
$DIMTXT
 40
5.0
  9
$DIMSTYLE
  2
Standard
  9
$PSVPSCALE
 40
1.0
  9
$PLIMMIN
 10
-2.5
 20
0.0
  9
$PLIMMAX
 10
207.5
 20
297.0
  9
$PINSBASE
 10
-140.0000000000000284
 20
274.0
 30
0.0
  9
$DIMEXE
 40
2.0
  9
$DIMAUNIT
 70
0
  0
ENDSEC
  0
SECTION
  2
TABLES
  0
TABLE
  2
VPORT
  5
8
100
AcDbSymbolTable
 70
1
  0
VPORT
  5
30
100
AcDbSymbolTableRecord
100
AcDbViewportTableRecord
  2
*Active
 70
0
 10
0.0
 20
0.0
 11
1.0
 21
1.0
 12
286.3055555555554861
 22
148.5
 13
0.0
 23
0.0
 14
10.0
 24
10.0
 15
10.0
 25
10.0
 16
0.0
 26
0.0
 36
1.0
 17
0.0
 27
0.0
 37
0.0
 40
297.0
 41
1.92798353909465
 42
50.0
 43
0.0
 44
0.0
 50
0.0
 51
0.0
 71
0
 72
100
 73
1
 74
3
 75
1
 76
1
 77
0
 78
0
281
0
 65
1
110
0.0
120
0.0
130
0.0
111
1.0
121
0.0
131
0.0
112
0.0
122
1.0
132
0.0
 79
0
146
0.0
  0
ENDTAB
  0
TABLE
  2
LTYPE
  5
5
100
AcDbSymbolTable
 70
21
  0
LTYPE
  5
14
100
AcDbSymbolTableRecord
100
AcDbLinetypeTableRecord
  2
ByBlock
 70
0
  3

 72
65
 73
0
 40
0.0
  0
LTYPE
  5
15
100
AcDbSymbolTableRecord
100
AcDbLinetypeTableRecord
  2
ByLayer
 70
0
  3

 72
65
 73
0
 40
0.0
  0
LTYPE
  5
16
100
AcDbSymbolTableRecord
100
AcDbLinetypeTableRecord
  2
CONTINUOUS
 70
0
  3
Solid line
 72
65
 73
0
 40
0.0
  0
LTYPE
  5
31
100
AcDbSymbolTableRecord
100
AcDbLinetypeTableRecord
  2
DOT
 70
0
  3
Dot . . . . . . . . . . . . . . . . . . . . . .
 72
65
 73
2
 40
6.3499999999999996
 49
0.0
 74
0
 49
-6.3499999999999996
 74
0
  0
LTYPE
  5
32
100
AcDbSymbolTableRecord
100
AcDbLinetypeTableRecord
  2
DOT2
 70
0
  3
Dot (.5x) .....................................
 72
65
 73
2
 40
3.1749999999999998
 49
0.0
 74
0
 49
-3.1749999999999998
 74
0
  0
LTYPE
  5
33
100
AcDbSymbolTableRecord
100
AcDbLinetypeTableRecord
  2
DOTX2
 70
0
  3
Dot (2x) .  .  .  .  .  .  .  .  .  .  .  .  .
 72
65
 73
2
 40
12.6999999999999993
 49
0.0
 74
0
 49
-12.6999999999999993
 74
0
  0
LTYPE
  5
34
100
AcDbSymbolTableRecord
100
AcDbLinetypeTableRecord
  2
DASHED
 70
0
  3
Dashed __ __ __ __ __ __ __ __ __ __ __ __ __ _
 72
65
 73
2
 40
19.0500000000000007
 49
12.6999999999999993
 74
0
 49
-6.3499999999999996
 74
0
  0
LTYPE
  5
35
100
AcDbSymbolTableRecord
100
AcDbLinetypeTableRecord
  2
DASHED2
 70
0
  3
Dashed (.5x) _ _ _ _ _ _ _ _ _ _ _ _ _ _ _ _ _
 72
65
 73
2
 40
9.5250000000000004
 49
6.3499999999999996
 74
0
 49
-3.1749999999999998
 74
0
  0
LTYPE
  5
36
100
AcDbSymbolTableRecord
100
AcDbLinetypeTableRecord
  2
DASHEDX2
 70
0
  3
Dashed (2x) ____  ____  ____  ____  ____  ___
 72
65
 73
2
 40
38.1000000000000014
 49
25.3999999999999986
 74
0
 49
-12.6999999999999993
 74
0
  0
LTYPE
  5
37
100
AcDbSymbolTableRecord
100
AcDbLinetypeTableRecord
  2
DASHDOT
 70
0
  3
Dash dot __ . __ . __ . __ . __ . __ . __ . __
 72
65
 73
4
 40
25.3999999999999986
 49
12.6999999999999993
 74
0
 49
-6.3499999999999996
 74
0
 49
0.0
 74
0
 49
-6.3499999999999996
 74
0
  0
LTYPE
  5
38
100
AcDbSymbolTableRecord
100
AcDbLinetypeTableRecord
  2
DASHDOT2
 70
0
  3
Dash dot (.5x) _._._._._._._._._._._._._._._.
 72
65
 73
4
 40
12.6999999999999993
 49
6.3499999999999996
 74
0
 49
-3.1749999999999998
 74
0
 49
0.0
 74
0
 49
-3.1749999999999998
 74
0
  0
LTYPE
  5
39
100
AcDbSymbolTableRecord
100
AcDbLinetypeTableRecord
  2
DASHDOTX2
 70
0
  3
Dash dot (2x) ____  .  ____  .  ____  .  ___
 72
65
 73
4
 40
50.7999999999999972
 49
25.3999999999999986
 74
0
 49
-12.6999999999999993
 74
0
 49
0.0
 74
0
 49
-12.6999999999999993
 74
0
  0
LTYPE
  5
3A
100
AcDbSymbolTableRecord
100
AcDbLinetypeTableRecord
  2
DIVIDE
 70
0
  3
Divide ____ . . ____ . . ____ . . ____ . . ____
 72
65
 73
6
 40
31.75
 49
12.6999999999999993
 74
0
 49
-6.3499999999999996
 74
0
 49
0.0
 74
0
 49
-6.3499999999999996
 74
0
 49
0.0
 74
0
 49
-6.3499999999999996
 74
0
  0
LTYPE
  5
3B
100
AcDbSymbolTableRecord
100
AcDbLinetypeTableRecord
  2
DIVIDE2
 70
0
  3
Divide (.5x) __..__..__..__..__..__..__..__.._
 72
65
 73
6
 40
15.875
 49
6.3499999999999996
 74
0
 49
-3.1749999999999998
 74
0
 49
0.0
 74
0
 49
-3.1749999999999998
 74
0
 49
0.0
 74
0
 49
-3.1749999999999998
 74
0
  0
LTYPE
  5
3C
100
AcDbSymbolTableRecord
100
AcDbLinetypeTableRecord
  2
DIVIDEX2
 70
0
  3
Divide (2x) ________  .  .  ________  .  .  _
 72
65
 73
6
 40
63.5
 49
25.3999999999999986
 74
0
 49
-12.6999999999999993
 74
0
 49
0.0
 74
0
 49
-12.6999999999999993
 74
0
 49
0.0
 74
0
 49
-12.6999999999999993
 74
0
  0
LTYPE
  5
3D
100
AcDbSymbolTableRecord
100
AcDbLinetypeTableRecord
  2
CENTER
 70
0
  3
Center ____ _ ____ _ ____ _ ____ _ ____ _ ____
 72
65
 73
4
 40
50.7999999999999972
 49
31.75
 74
0
 49
-6.3499999999999996
 74
0
 49
6.3499999999999996
 74
0
 49
-6.3499999999999996
 74
0
  0
LTYPE
  5
3E
100
AcDbSymbolTableRecord
100
AcDbLinetypeTableRecord
  2
CENTER2
 70
0
  3
Center (.5x) ___ _ ___ _ ___ _ ___ _ ___ _ ___
 72
65
 73
4
 40
28.5749999999999993
 49
19.0500000000000007
 74
0
 49
-3.1749999999999998
 74
0
 49
3.1749999999999998
 74
0
 49
-3.1749999999999998
 74
0
  0
LTYPE
  5
3F
100
AcDbSymbolTableRecord
100
AcDbLinetypeTableRecord
  2
CENTERX2
 70
0
  3
Center (2x) ________  __  ________  __  _____
 72
65
 73
4
 40
101.5999999999999943
 49
63.5
 74
0
 49
-12.6999999999999993
 74
0
 49
12.6999999999999993
 74
0
 49
-12.6999999999999993
 74
0
  0
LTYPE
  5
40
100
AcDbSymbolTableRecord
100
AcDbLinetypeTableRecord
  2
BORDER
 70
0
  3
Border __ __ . __ __ . __ __ . __ __ . __ __ .
 72
65
 73
6
 40
44.4500000000000028
 49
12.6999999999999993
 74
0
 49
-6.3499999999999996
 74
0
 49
12.6999999999999993
 74
0
 49
-6.3499999999999996
 74
0
 49
0.0
 74
0
 49
-6.3499999999999996
 74
0
  0
LTYPE
  5
41
100
AcDbSymbolTableRecord
100
AcDbLinetypeTableRecord
  2
BORDER2
 70
0
  3
Border (.5x) __.__.__.__.__.__.__.__.__.__.__.
 72
65
 73
6
 40
22.2250000000000014
 49
6.3499999999999996
 74
0
 49
-3.1749999999999998
 74
0
 49
6.3499999999999996
 74
0
 49
-3.1749999999999998
 74
0
 49
0.0
 74
0
 49
-3.1749999999999998
 74
0
  0
LTYPE
  5
42
100
AcDbSymbolTableRecord
100
AcDbLinetypeTableRecord
  2
BORDERX2
 70
0
  3
Border (2x) ____  ____  .  ____  ____  .  ___
 72
65
 73
6
 40
88.9000000000000057
 49
25.3999999999999986
 74
0
 49
-12.6999999999999993
 74
0
 49
25.3999999999999986
 74
0
 49
-12.6999999999999993
 74
0
 49
0.0
 74
0
 49
-12.6999999999999993
 74
0
  0
ENDTAB
  0
TABLE
  2
LAYER
  5
2
100
AcDbSymbolTable
 70
10
  0
LAYER
  5
10
100
AcDbSymbolTableRecord
100
AcDbLayerTableRecord
  2
0
 70
0
 62
7
  6
CONTINUOUS
370
0
390
F
  0
LAYER
  5
43
100
AcDbSymbolTableRecord
100
AcDbLayerTableRecord
  2
default
 70
0
 62
7
  6
CONTINUOUS
390
F
  0
LAYER
  5
44
100
AcDbSymbolTableRecord
100
AcDbLayerTableRecord
  2
contour
 70
0
 62
7
  6
CONTINUOUS
370
35
390
F
  0
LAYER
  5
45
100
AcDbSymbolTableRecord
100
AcDbLayerTableRecord
  2
invisible
 70
0
 62
7
  6
CONTINUOUS
390
F
  0
LAYER
  5
46
100
AcDbSymbolTableRecord
100
AcDbLayerTableRecord
  2
axes
 70
0
 62
7
  6
DASHDOT
390
F
  0
LAYER
  5
47
100
AcDbSymbolTableRecord
100
AcDbLayerTableRecord
  2
dimensions
 70
0
 62
7
  6
CONTINUOUS
390
F
  0
LAYER
  5
48
100
AcDbSymbolTableRecord
100
AcDbLayerTableRecord
  2
separator
 70
0
 62
7
  6
CONTINUOUS
390
F
  0
LAYER
  5
49
100
AcDbSymbolTableRecord
100
AcDbLayerTableRecord
  2
text
 70
0
 62
7
  6
CONTINUOUS
390
F
  0
LAYER
  5
4A
100
AcDbSymbolTableRecord
100
AcDbLayerTableRecord
  2
helper
 70
0
 62
7
  6
CONTINUOUS
370
13
390
F
  0
LAYER
  5
4B
100
AcDbSymbolTableRecord
100
AcDbLayerTableRecord
  2
bend
 70
0
 62
7
  6
DASHED
370
25
390
F
  0
ENDTAB
  0
TABLE
  2
STYLE
  5
3
100
AcDbSymbolTable
 70
1
  0
STYLE
  5
11
100
AcDbSymbolTableRecord
100
AcDbTextStyleTableRecord
  2
Standard
 70
0
 40
0.0
 41
1.0
 50
0.0
 71
0
 42
2.5
  3
txt
  4

  0
ENDTAB
  0
TABLE
  2
VIEW
  5
6
100
AcDbSymbolTable
 70
0
  0
ENDTAB
  0
TABLE
  2
UCS
  5
7
100
AcDbSymbolTable
 70
0
  0
ENDTAB
  0
TABLE
  2
APPID
  5
9
100
AcDbSymbolTable
 70
1
  0
APPID
  5
12
100
AcDbSymbolTableRecord
100
AcDbRegAppTableRecord
  2
ACAD
 70
0
  0
ENDTAB
  0
TABLE
  2
DIMSTYLE
  5
A
100
AcDbSymbolTable
 70
1
100
AcDbDimStyleTable
 71
0
  0
DIMSTYLE
105
27
100
AcDbSymbolTableRecord
100
AcDbDimStyleTableRecord
  2
Standard
 41
2.5
 42
0.625
 43
3.75
 44
1.25
 70
0
 73
0
 74
0
 77
1
 78
8
140
2.5
141
2.5
143
0.03937007874016
147
0.625
171
3
172
1
271
2
272
2
274
3
278
44
283
0
284
8
340
11
  0
ENDTAB
  0
TABLE
  2
BLOCK_RECORD
  5
1
100
AcDbSymbolTable
 70
1
  0
BLOCK_RECORD
  5
1F
100
AcDbSymbolTableRecord
100
AcDbBlockTableRecord
  2
*Model_Space
340
22
  0
BLOCK_RECORD
  5
1B
100
AcDbSymbolTableRecord
100
AcDbBlockTableRecord
  2
*Paper_Space
340
1E
  0
BLOCK_RECORD
  5
23
100
AcDbSymbolTableRecord
100
AcDbBlockTableRecord
  2
*Paper_Space0
340
26
  0
ENDTAB
  0
ENDSEC
  0
SECTION
  2
BLOCKS
  0
BLOCK
  5
20
100
AcDbEntity
  8
0
100
AcDbBlockBegin
  2
*Model_Space
 70
0
 10
0.0
 20
0.0
 30
0.0
  3
*Model_Space
  1

  0
ENDBLK
  5
21
100
AcDbEntity
  8
0
100
AcDbBlockEnd
  0
BLOCK
  5
1C
100
AcDbEntity
 67
1
  8
0
100
AcDbBlockBegin
  2
*Paper_Space
 70
0
 10
0.0
 20
0.0
 30
0.0
  3
*Paper_Space
  1

  0
ENDBLK
  5
1D
100
AcDbEntity
 67
1
  8
0
100
AcDbBlockEnd
  0
BLOCK
  5
24
100
AcDbEntity
  8
0
100
AcDbBlockBegin
  2
*Paper_Space0
 70
0
 10
0.0
 20
0.0
 30
0.0
  3
*Paper_Space0
  1

  0
ENDBLK
  5
25
100
AcDbEntity
  8
0
100
AcDbBlockEnd
  0
ENDSEC
  0
SECTION
  2
ENTITIES
  0
LINE
  5
4C
100
AcDbEntity
100
AcDbLine
  8
contour
 62
256
370
-1
  6
ByLayer
 10
145.0
 20
-124.9999999999999716
 30
0.0
 11
145.0
 21
-24.9999999999999858
 31
0.0
  0
LINE
  5
4D
100
AcDbEntity
100
AcDbLine
  8
contour
 62
256
370
-1
  6
ByLayer
 10
170.0
 20
-124.9999999999999858
 30
0.0
 11
145.0
 21
-124.9999999999999716
 31
0.0
  0
LINE
  5
4E
100
AcDbEntity
100
AcDbLine
  8
contour
 62
256
370
-1
  6
ByLayer
 10
145.0
 20
-24.9999999999999858
 30
0.0
 11
170.0
 21
-25.0
 31
0.0
  0
LINE
  5
4F
100
AcDbEntity
100
AcDbLine
  8
bend
 62
256
370
-1
  6
ByLayer
 10
170.0
 20
-25.0
 30
0.0
 11
170.0
 21
-124.9999999999999858
 31
0.0
  0
LINE
  5
50
100
AcDbEntity
100
AcDbLine
  8
contour
 62
256
370
-1
  6
ByLayer
 10
170.0
 20
-25.0
 30
0.0
 11
195.0
 21
-25.0
 31
0.0
  0
LINE
  5
51
100
AcDbEntity
100
AcDbLine
  8
contour
 62
256
370
-1
  6
ByLayer
 10
195.0
 20
-25.0
 30
0.0
 11
195.0
 21
-125.0
 31
0.0
  0
LINE
  5
52
100
AcDbEntity
100
AcDbLine
  8
contour
 62
256
370
-1
  6
ByLayer
 10
195.0
 20
-125.0
 30
0.0
 11
170.0
 21
-124.9999999999999858
 31
0.0
  0
CIRCLE
  5
53
100
AcDbEntity
100
AcDbCircle
  8
contour
 62
256
370
-1
  6
ByLayer
 10
182.5000000000000284
 20
-35.0
 30
0.0
 40
4.25
  0
CIRCLE
  5
54
100
AcDbEntity
100
AcDbCircle
  8
contour
 62
256
370
-1
  6
ByLayer
 10
157.5
 20
-107.5
 30
0.0
 40
5.25
  0
CIRCLE
  5
55
100
AcDbEntity
100
AcDbCircle
  8
contour
 62
256
370
-1
  6
ByLayer
 10
182.5
 20
-65.0
 30
0.0
 40
4.25
  0
MTEXT
  5
56
100
AcDbEntity
100
AcDbMText
  8
contour
 62
256
370
-1
  6
ByLayer
 10
167.0870227544862985
 20
-71.7542323353218876
 30
0.0
 40
3.0
 41
100.0
 71
5
 72
2
  1
Bend\~here
  7
normallatin1
 50
90.0
 73
0
 44
1.0
  0
MTEXT
  5
57
100
AcDbEntity
100
AcDbMText
  8
contour
 62
256
370
-1
  6
ByLayer
 10
151.5477307784375398
 20
-54.9238419161592759
 30
0.0
 40
6.0
 41
100.0
 71
5
 72
2
  1
"Plate\~block"
  7
normallatin1
 50
90.0
 73
0
 44
1.0
  0
MTEXT
  5
58
100
AcDbEntity
100
AcDbMText
  8
contour
 62
256
370
-1
  6
ByLayer
 10
187.8460412934094848
 20
-75.5445284790344971
 30
0.0
 40
6.0
 41
100.0
 71
5
 72
2
  1
8.5
  7
normallatin1
 50
90.0
 73
0
 44
1.0
  0
MTEXT
  5
59
100
AcDbEntity
100
AcDbMText
  8
contour
 62
256
370
-1
  6
ByLayer
 10
187.5509330778406252
 20
-45.0008281676557544
 30
0.0
 40
6.0
 41
100.0
 71
5
 72
2
  1
8.5
  7
normallatin1
 50
90.0
 73
0
 44
1.0
  0
MTEXT
  5
5A
100
AcDbEntity
100
AcDbMText
  8
contour
 62
256
370
-1
  6
ByLayer
 10
163.7947217245459797
 20
-95.7594412455026713
 30
0.0
 40
6.0
 41
100.0
 71
5
 72
2
  1
10.5
  7
normallatin1
 50
90.0
 73
0
 44
1.0
  0
LINE
  5
5B
100
AcDbEntity
100
AcDbLine
  8
helper
 62
256
370
-1
  6
ByLayer
 10
157.5
 20
-124.9999999999999716
 30
0.0
 11
157.4999999999999432
 21
-25.0000000000000142
 31
0.0
  0
LINE
  5
5C
100
AcDbEntity
100
AcDbLine
  8
helper
 62
256
370
-1
  6
ByLayer
 10
182.5
 20
-125.0000000000000142
 30
0.0
 11
182.5
 21
-24.9999999999999858
 31
0.0
  0
LINE
  5
5D
100
AcDbEntity
100
AcDbLine
  8
helper
 62
256
370
-1
  6
ByLayer
 10
170.0
 20
-107.4999999999999858
 30
0.0
 11
145.0
 21
-107.4999999999999716
 31
0.0
  0
LINE
  5
5E
100
AcDbEntity
100
AcDbLine
  8
helper
 62
256
370
-1
  6
ByLayer
 10
195.0
 20
-65.0
 30
0.0
 11
170.0
 21
-65.0
 31
0.0
  0
LINE
  5
5F
100
AcDbEntity
100
AcDbLine
  8
helper
 62
256
370
-1
  6
ByLayer
 10
195.0
 20
-35.0
 30
0.0
 11
170.0
 21
-34.9999999999999858
 31
0.0
  0
LINE
  5
60
100
AcDbEntity
100
AcDbLine
  8
contour
 62
256
370
-1
  6
ByLayer
 10
170.0
 20
-126.0
 30
0.0
 11
145.0
 21
-125.9999999999999716
 31
0.0
  0
LINE
  5
61
100
AcDbEntity
100
AcDbLine
  8
contour
 62
256
370
-1
  6
ByLayer
 10
195.0
 20
-126.0
 30
0.0
 11
170.0
 21
-126.0
 31
0.0
  0
LINE
  5
62
100
AcDbEntity
100
AcDbLine
  8
contour
 62
256
370
-1
  6
ByLayer
 10
144.9999999999999432
 20
-225.9999999999999716
 30
0.0
 11
145.0
 21
-125.9999999999999716
 31
0.0
  0
LINE
  5
63
100
AcDbEntity
100
AcDbLine
  8
contour
 62
256
370
-1
  6
ByLayer
 10
170.0
 20
-226.0
 30
0.0
 11
144.9999999999999432
 21
-225.9999999999999716
 31
0.0
  0
LINE
  5
64
100
AcDbEntity
100
AcDbLine
  8
bend
 62
256
370
-1
  6
ByLayer
 10
170.0
 20
-126.0
 30
0.0
 11
170.0
 21
-226.0
 31
0.0
  0
LINE
  5
65
100
AcDbEntity
100
AcDbLine
  8
contour
 62
256
370
-1
  6
ByLayer
 10
195.0
 20
-126.0
 30
0.0
 11
194.9999999999999716
 21
-226.0
 31
0.0
  0
LINE
  5
66
100
AcDbEntity
100
AcDbLine
  8
contour
 62
256
370
-1
  6
ByLayer
 10
194.9999999999999716
 20
-226.0
 30
0.0
 11
170.0
 21
-226.0
 31
0.0
  0
CIRCLE
  5
67
100
AcDbEntity
100
AcDbCircle
  8
contour
 62
256
370
-1
  6
ByLayer
 10
182.5
 20
-136.0
 30
0.0
 40
4.25
  0
CIRCLE
  5
68
100
AcDbEntity
100
AcDbCircle
  8
contour
 62
256
370
-1
  6
ByLayer
 10
157.5
 20
-208.5
 30
0.0
 40
5.25
  0
CIRCLE
  5
69
100
AcDbEntity
100
AcDbCircle
  8
contour
 62
256
370
-1
  6
ByLayer
 10
182.5
 20
-166.0
 30
0.0
 40
4.25
  0
MTEXT
  5
6A
100
AcDbEntity
100
AcDbMText
  8
contour
 62
256
370
-1
  6
ByLayer
 10
167.0870227544863269
 20
-172.7542323353218592
 30
0.0
 40
3.0
 41
100.0
 71
5
 72
2
  1
Bend\~here
  7
normallatin1
 50
90.0
 73
0
 44
1.0
  0
MTEXT
  5
6B
100
AcDbEntity
100
AcDbMText
  8
contour
 62
256
370
-1
  6
ByLayer
 10
151.5477307784375398
 20
-155.9238419161592333
 30
0.0
 40
6.0
 41
100.0
 71
5
 72
2
  1
"Plate\~block"
  7
normallatin1
 50
90.0
 73
0
 44
1.0
  0
MTEXT
  5
6C
100
AcDbEntity
100
AcDbMText
  8
contour
 62
256
370
-1
  6
ByLayer
 10
187.8460412934094563
 20
-176.5445284790345397
 30
0.0
 40
6.0
 41
100.0
 71
5
 72
2
  1
8.5
  7
normallatin1
 50
90.0
 73
0
 44
1.0
  0
MTEXT
  5
6D
100
AcDbEntity
100
AcDbMText
  8
contour
 62
256
370
-1
  6
ByLayer
 10
187.5509330778406252
 20
-146.0008281676557544
 30
0.0
 40
6.0
 41
100.0
 71
5
 72
2
  1
8.5
  7
normallatin1
 50
90.0
 73
0
 44
1.0
  0
MTEXT
  5
6E
100
AcDbEntity
100
AcDbMText
  8
contour
 62
256
370
-1
  6
ByLayer
 10
163.7947217245459797
 20
-196.7594412455026429
 30
0.0
 40
6.0
 41
100.0
 71
5
 72
2
  1
10.5
  7
normallatin1
 50
90.0
 73
0
 44
1.0
  0
LINE
  5
6F
100
AcDbEntity
100
AcDbLine
  8
helper
 62
256
370
-1
  6
ByLayer
 10
157.5
 20
-225.9999999999999716
 30
0.0
 11
157.5
 21
-125.9999999999999716
 31
0.0
  0
LINE
  5
70
100
AcDbEntity
100
AcDbLine
  8
helper
 62
256
370
-1
  6
ByLayer
 10
182.4999999999999716
 20
-226.0
 30
0.0
 11
182.5
 21
-126.0
 31
0.0
  0
LINE
  5
71
100
AcDbEntity
100
AcDbLine
  8
helper
 62
256
370
-1
  6
ByLayer
 10
170.0
 20
-208.5
 30
0.0
 11
145.0000000000000568
 21
-208.5
 31
0.0
  0
LINE
  5
72
100
AcDbEntity
100
AcDbLine
  8
helper
 62
256
370
-1
  6
ByLayer
 10
195.0
 20
-166.0
 30
0.0
 11
170.0
 21
-166.0
 31
0.0
  0
LINE
  5
73
100
AcDbEntity
100
AcDbLine
  8
helper
 62
256
370
-1
  6
ByLayer
 10
195.0
 20
-136.0
 30
0.0
 11
170.0
 21
-136.0
 31
0.0
  0
LINE
  5
74
100
AcDbEntity
100
AcDbLine
  8
contour
 62
256
370
-1
  6
ByLayer
 10
194.9999999999999716
 20
-226.0
 30
0.0
 11
195.0
 21
-126.0
 31
0.0
  0
LINE
  5
75
100
AcDbEntity
100
AcDbLine
  8
contour
 62
256
370
-1
  6
ByLayer
 10
195.0
 20
-126.0
 30
0.0
 11
220.0
 21
-126.0
 31
0.0
  0
LINE
  5
76
100
AcDbEntity
100
AcDbLine
  8
contour
 62
256
370
-1
  6
ByLayer
 10
220.0000000000000568
 20
-226.0
 30
0.0
 11
194.9999999999999716
 21
-226.0
 31
0.0
  0
LINE
  5
77
100
AcDbEntity
100
AcDbLine
  8
contour
 62
256
370
-1
  6
ByLayer
 10
220.0000000000000568
 20
-226.0
 30
0.0
 11
244.9999999999998579
 21
-226.0
 31
0.0
  0
LINE
  5
78
100
AcDbEntity
100
AcDbLine
  8
contour
 62
256
370
-1
  6
ByLayer
 10
244.9999999999998579
 20
-226.0
 30
0.0
 11
245.0000000000000284
 21
-126.0
 31
0.0
  0
LINE
  5
79
100
AcDbEntity
100
AcDbLine
  8
contour
 62
256
370
-1
  6
ByLayer
 10
245.0000000000000284
 20
-126.0
 30
0.0
 11
220.0
 21
-126.0
 31
0.0
  0
LINE
  5
7A
100
AcDbEntity
100
AcDbLine
  8
bend
 62
256
370
-1
  6
ByLayer
 10
220.0000000000000568
 20
-226.0
 30
0.0
 11
220.0
 21
-126.0
 31
0.0
  0
MTEXT
  5
7B
100
AcDbEntity
100
AcDbMText
  8
contour
 62
256
370
-1
  6
ByLayer
 10
217.3135904191535133
 20
-175.0597652694563635
 30
0.0
 40
3.0
 41
100.0
 71
5
 72
2
  1
Bend\~here
  7
normallatin1
 50
90.0
 73
0
 44
1.0
  0
CIRCLE
  5
7C
100
AcDbEntity
100
AcDbCircle
  8
contour
 62
256
370
-1
  6
ByLayer
 10
207.4999999999999432
 20
-208.4999999999999716
 30
0.0
 40
5.25
  0
CIRCLE
  5
7D
100
AcDbEntity
100
AcDbCircle
  8
contour
 62
256
370
-1
  6
ByLayer
 10
232.4999999999999716
 20
-143.5
 30
0.0
 40
5.25
  0
LINE
  5
7E
100
AcDbEntity
100
AcDbLine
  8
helper
 62
256
370
-1
  6
ByLayer
 10
219.9999999999999716
 20
-208.5
 30
0.0
 11
195.0000000000000284
 21
-208.5
 31
0.0
  0
LINE
  5
7F
100
AcDbEntity
100
AcDbLine
  8
helper
 62
256
370
-1
  6
ByLayer
 10
245.0000000000000284
 20
-143.5
 30
0.0
 11
220.0
 21
-143.5
 31
0.0
  0
LINE
  5
80
100
AcDbEntity
100
AcDbLine
  8
helper
 62
256
370
-1
  6
ByLayer
 10
232.5
 20
-226.0
 30
0.0
 11
232.5000000000000284
 21
-126.0
 31
0.0
  0
LINE
  5
81
100
AcDbEntity
100
AcDbLine
  8
helper
 62
256
370
-1
  6
ByLayer
 10
207.5000000000000568
 20
-226.0
 30
0.0
 11
207.4999999999999716
 21
-126.0
 31
0.0
  0
MTEXT
  5
82
100
AcDbEntity
100
AcDbMText
  8
contour
 62
256
370
-1
  6
ByLayer
 10
201.0826385628632238
 20
-196.3167789221505757
 30
0.0
 40
6.0
 41
100.0
 71
5
 72
2
  1
10.5
  7
normallatin1
 50
90.0
 73
0
 44
1.0
  0
MTEXT
  5
83
100
AcDbEntity
100
AcDbMText
  8
contour
 62
256
370
-1
  6
ByLayer
 10
225.7979516167565066
 20
-155.9238419161609386
 30
0.0
 40
6.0
 41
100.0
 71
5
 72
2
  1
10.5
  7
normallatin1
 50
90.0
 73
0
 44
1.0
  0
MTEXT
  5
84
100
AcDbEntity
100
AcDbMText
  8
contour
 62
256
370
-1
  6
ByLayer
 10
200.944306586813866
 20
-156.1543952095731811
 30
0.0
 40
6.0
 41
100.0
 71
5
 72
2
  1
"Cross\~block"
  7
normallatin1
 50
90.0
 73
0
 44
1.0
  0
LINE
  5
85
100
AcDbEntity
100
AcDbLine
  8
contour
 62
256
370
-1
  6
ByLayer
 10
194.9999999999999716
 20
-125.0000000000000142
 30
0.0
 11
220.0
 21
-125.0
 31
0.0
  0
LINE
  5
86
100
AcDbEntity
100
AcDbLine
  8
contour
 62
256
370
-1
  6
ByLayer
 10
194.9999999999999716
 20
-125.0000000000000142
 30
0.0
 11
195.0
 21
-25.0
 31
0.0
  0
LINE
  5
87
100
AcDbEntity
100
AcDbLine
  8
contour
 62
256
370
-1
  6
ByLayer
 10
195.0
 20
-25.0
 30
0.0
 11
219.9999999999999716
 21
-25.0
 31
0.0
  0
LINE
  5
88
100
AcDbEntity
100
AcDbLine
  8
contour
 62
256
370
-1
  6
ByLayer
 10
220.0
 20
-125.0
 30
0.0
 11
245.0
 21
-125.0
 31
0.0
  0
LINE
  5
89
100
AcDbEntity
100
AcDbLine
  8
contour
 62
256
370
-1
  6
ByLayer
 10
245.0
 20
-125.0
 30
0.0
 11
244.9999999999999147
 21
-25.0
 31
0.0
  0
LINE
  5
8A
100
AcDbEntity
100
AcDbLine
  8
contour
 62
256
370
-1
  6
ByLayer
 10
244.9999999999999147
 20
-25.0
 30
0.0
 11
219.9999999999999716
 21
-25.0
 31
0.0
  0
LINE
  5
8B
100
AcDbEntity
100
AcDbLine
  8
bend
 62
256
370
-1
  6
ByLayer
 10
220.0
 20
-125.0
 30
0.0
 11
219.9999999999999716
 21
-25.0
 31
0.0
  0
MTEXT
  5
8C
100
AcDbEntity
100
AcDbMText
  8
contour
 62
256
370
-1
  6
ByLayer
 10
217.3135904191535701
 20
-74.0597652694564204
 30
0.0
 40
3.0
 41
100.0
 71
5
 72
2
  1
Bend\~here
  7
normallatin1
 50
90.0
 73
0
 44
1.0
  0
CIRCLE
  5
8D
100
AcDbEntity
100
AcDbCircle
  8
contour
 62
256
370
-1
  6
ByLayer
 10
207.4999999999999716
 20
-107.4999999999999858
 30
0.0
 40
5.25
  0
CIRCLE
  5
8E
100
AcDbEntity
100
AcDbCircle
  8
contour
 62
256
370
-1
  6
ByLayer
 10
232.4999999999999716
 20
-42.5
 30
0.0
 40
5.25
  0
LINE
  5
8F
100
AcDbEntity
100
AcDbLine
  8
helper
 62
256
370
-1
  6
ByLayer
 10
220.0
 20
-107.5
 30
0.0
 11
194.9999999999999716
 21
-107.4999999999999858
 31
0.0
  0
LINE
  5
90
100
AcDbEntity
100
AcDbLine
  8
helper
 62
256
370
-1
  6
ByLayer
 10
245.0
 20
-42.5
 30
0.0
 11
220.0
 21
-42.5
 31
0.0
  0
LINE
  5
91
100
AcDbEntity
100
AcDbLine
  8
helper
 62
256
370
-1
  6
ByLayer
 10
232.5
 20
-125.0
 30
0.0
 11
232.5000000000001137
 21
-25.0
 31
0.0
  0
LINE
  5
92
100
AcDbEntity
100
AcDbLine
  8
helper
 62
256
370
-1
  6
ByLayer
 10
207.4999999999999716
 20
-125.0
 30
0.0
 11
207.5
 21
-25.0
 31
0.0
  0
MTEXT
  5
93
100
AcDbEntity
100
AcDbMText
  8
contour
 62
256
370
-1
  6
ByLayer
 10
201.0826385628631954
 20
-95.3167789221505473
 30
0.0
 40
6.0
 41
100.0
 71
5
 72
2
  1
10.5
  7
normallatin1
 50
90.0
 73
0
 44
1.0
  0
MTEXT
  5
94
100
AcDbEntity
100
AcDbMText
  8
contour
 62
256
370
-1
  6
ByLayer
 10
225.7979516167564782
 20
-54.9238419161609386
 30
0.0
 40
6.0
 41
100.0
 71
5
 72
2
  1
10.5
  7
normallatin1
 50
90.0
 73
0
 44
1.0
  0
MTEXT
  5
95
100
AcDbEntity
100
AcDbMText
  8
contour
 62
256
370
-1
  6
ByLayer
 10
200.9443065868138376
 20
-55.1543952095731811
 30
0.0
 40
6.0
 41
100.0
 71
5
 72
2
  1
"Cross\~block"
  7
normallatin1
 50
90.0
 73
0
 44
1.0
  0
LINE
  5
96
100
AcDbEntity
100
AcDbLine
  8
contour
 62
256
370
-1
  6
ByLayer
 10
245.0
 20
-125.0
 30
0.0
 11
244.9999999999999147
 21
-25.0
 31
0.0
  0
LINE
  5
97
100
AcDbEntity
100
AcDbLine
  8
contour
 62
256
370
-1
  6
ByLayer
 10
270.0
 20
-125.0000000000000142
 30
0.0
 11
245.0
 21
-125.0
 31
0.0
  0
LINE
  5
98
100
AcDbEntity
100
AcDbLine
  8
contour
 62
256
370
-1
  6
ByLayer
 10
244.9999999999999147
 20
-25.0
 30
0.0
 11
270.0000000000001137
 21
-25.0000000000000284
 31
0.0
  0
LINE
  5
99
100
AcDbEntity
100
AcDbLine
  8
bend
 62
256
370
-1
  6
ByLayer
 10
270.0000000000001137
 20
-25.0000000000000284
 30
0.0
 11
270.0
 21
-125.0000000000000142
 31
0.0
  0
LINE
  5
9A
100
AcDbEntity
100
AcDbLine
  8
contour
 62
256
370
-1
  6
ByLayer
 10
270.0000000000001137
 20
-25.0000000000000284
 30
0.0
 11
295.0000000000000568
 21
-25.0000000000000284
 31
0.0
  0
LINE
  5
9B
100
AcDbEntity
100
AcDbLine
  8
contour
 62
256
370
-1
  6
ByLayer
 10
295.0000000000000568
 20
-25.0000000000000284
 30
0.0
 11
295.0
 21
-125.0000000000000284
 31
0.0
  0
LINE
  5
9C
100
AcDbEntity
100
AcDbLine
  8
contour
 62
256
370
-1
  6
ByLayer
 10
295.0
 20
-125.0000000000000284
 30
0.0
 11
270.0
 21
-125.0000000000000142
 31
0.0
  0
CIRCLE
  5
9D
100
AcDbEntity
100
AcDbCircle
  8
contour
 62
256
370
-1
  6
ByLayer
 10
282.5000000000001137
 20
-35.0000000000000284
 30
0.0
 40
4.25
  0
CIRCLE
  5
9E
100
AcDbEntity
100
AcDbCircle
  8
contour
 62
256
370
-1
  6
ByLayer
 10
257.5
 20
-107.5
 30
0.0
 40
5.25
  0
CIRCLE
  5
9F
100
AcDbEntity
100
AcDbCircle
  8
contour
 62
256
370
-1
  6
ByLayer
 10
282.5
 20
-65.0
 30
0.0
 40
4.25
  0
MTEXT
  5
A0
100
AcDbEntity
100
AcDbMText
  8
contour
 62
256
370
-1
  6
ByLayer
 10
267.0870227544863269
 20
-71.7542323353219018
 30
0.0
 40
3.0
 41
100.0
 71
5
 72
2
  1
Bend\~here
  7
normallatin1
 50
90.0
 73
0
 44
1.0
  0
MTEXT
  5
A1
100
AcDbEntity
100
AcDbMText
  8
contour
 62
256
370
-1
  6
ByLayer
 10
251.5477307784376535
 20
-54.9238419161592901
 30
0.0
 40
6.0
 41
100.0
 71
5
 72
2
  1
"Plate\~block"
  7
normallatin1
 50
90.0
 73
0
 44
1.0
  0
MTEXT
  5
A2
100
AcDbEntity
100
AcDbMText
  8
contour
 62
256
370
-1
  6
ByLayer
 10
287.8460412934095416
 20
-75.5445284790345397
 30
0.0
 40
6.0
 41
100.0
 71
5
 72
2
  1
8.5
  7
normallatin1
 50
90.0
 73
0
 44
1.0
  0
MTEXT
  5
A3
100
AcDbEntity
100
AcDbMText
  8
contour
 62
256
370
-1
  6
ByLayer
 10
287.550933077840682
 20
-45.0008281676557544
 30
0.0
 40
6.0
 41
100.0
 71
5
 72
2
  1
8.5
  7
normallatin1
 50
90.0
 73
0
 44
1.0
  0
MTEXT
  5
A4
100
AcDbEntity
100
AcDbMText
  8
contour
 62
256
370
-1
  6
ByLayer
 10
263.7947217245459797
 20
-95.7594412455026713
 30
0.0
 40
6.0
 41
100.0
 71
5
 72
2
  1
10.5
  7
normallatin1
 50
90.0
 73
0
 44
1.0
  0
LINE
  5
A5
100
AcDbEntity
100
AcDbLine
  8
helper
 62
256
370
-1
  6
ByLayer
 10
257.5000000000000568
 20
-125.0
 30
0.0
 11
257.5000000000000568
 21
-25.0000000000000142
 31
0.0
  0
LINE
  5
A6
100
AcDbEntity
100
AcDbLine
  8
helper
 62
256
370
-1
  6
ByLayer
 10
282.5
 20
-125.0
 30
0.0
 11
282.5
 21
-25.0
 31
0.0
  0
LINE
  5
A7
100
AcDbEntity
100
AcDbLine
  8
helper
 62
256
370
-1
  6
ByLayer
 10
270.0000000000000568
 20
-107.5000000000000142
 30
0.0
 11
245.0000000000000284
 21
-107.5
 31
0.0
  0
LINE
  5
A8
100
AcDbEntity
100
AcDbLine
  8
helper
 62
256
370
-1
  6
ByLayer
 10
295.0
 20
-65.0000000000000142
 30
0.0
 11
270.0000000000000568
 21
-65.0000000000000284
 31
0.0
  0
LINE
  5
A9
100
AcDbEntity
100
AcDbLine
  8
helper
 62
256
370
-1
  6
ByLayer
 10
295.0000000000000568
 20
-35.0000000000000284
 30
0.0
 11
270.0000000000001137
 21
-35.0000000000000142
 31
0.0
  0
LINE
  5
AA
100
AcDbEntity
100
AcDbLine
  8
contour
 62
256
370
-1
  6
ByLayer
 10
270.0
 20
-126.0
 30
0.0
 11
245.0
 21
-126.0
 31
0.0
  0
LINE
  5
AB
100
AcDbEntity
100
AcDbLine
  8
contour
 62
256
370
-1
  6
ByLayer
 10
295.0
 20
-126.0000000000000142
 30
0.0
 11
270.0
 21
-126.0
 31
0.0
  0
LINE
  5
AC
100
AcDbEntity
100
AcDbLine
  8
contour
 62
256
370
-1
  6
ByLayer
 10
244.9999999999998579
 20
-226.0
 30
0.0
 11
245.0
 21
-126.0
 31
0.0
  0
LINE
  5
AD
100
AcDbEntity
100
AcDbLine
  8
contour
 62
256
370
-1
  6
ByLayer
 10
270.0
 20
-226.0
 30
0.0
 11
244.9999999999998579
 21
-226.0
 31
0.0
  0
LINE
  5
AE
100
AcDbEntity
100
AcDbLine
  8
bend
 62
256
370
-1
  6
ByLayer
 10
270.0
 20
-126.0
 30
0.0
 11
270.0
 21
-226.0
 31
0.0
  0
LINE
  5
AF
100
AcDbEntity
100
AcDbLine
  8
contour
 62
256
370
-1
  6
ByLayer
 10
295.0
 20
-126.0000000000000142
 30
0.0
 11
295.0
 21
-226.0
 31
0.0
  0
LINE
  5
B0
100
AcDbEntity
100
AcDbLine
  8
contour
 62
256
370
-1
  6
ByLayer
 10
295.0
 20
-226.0
 30
0.0
 11
270.0
 21
-226.0
 31
0.0
  0
CIRCLE
  5
B1
100
AcDbEntity
100
AcDbCircle
  8
contour
 62
256
370
-1
  6
ByLayer
 10
282.5
 20
-136.0
 30
0.0
 40
4.25
  0
CIRCLE
  5
B2
100
AcDbEntity
100
AcDbCircle
  8
contour
 62
256
370
-1
  6
ByLayer
 10
257.5000000000000568
 20
-208.5
 30
0.0
 40
5.25
  0
CIRCLE
  5
B3
100
AcDbEntity
100
AcDbCircle
  8
contour
 62
256
370
-1
  6
ByLayer
 10
282.5
 20
-166.0000000000000284
 30
0.0
 40
4.25
  0
MTEXT
  5
B4
100
AcDbEntity
100
AcDbMText
  8
contour
 62
256
370
-1
  6
ByLayer
 10
267.0870227544863269
 20
-172.7542323353218876
 30
0.0
 40
3.0
 41
100.0
 71
5
 72
2
  1
Bend\~here
  7
normallatin1
 50
90.0
 73
0
 44
1.0
  0
MTEXT
  5
B5
100
AcDbEntity
100
AcDbMText
  8
contour
 62
256
370
-1
  6
ByLayer
 10
251.5477307784375682
 20
-155.9238419161592617
 30
0.0
 40
6.0
 41
100.0
 71
5
 72
2
  1
"Plate\~block"
  7
normallatin1
 50
90.0
 73
0
 44
1.0
  0
MTEXT
  5
B6
100
AcDbEntity
100
AcDbMText
  8
contour
 62
256
370
-1
  6
ByLayer
 10
287.8460412934095416
 20
-176.5445284790345113
 30
0.0
 40
6.0
 41
100.0
 71
5
 72
2
  1
8.5
  7
normallatin1
 50
90.0
 73
0
 44
1.0
  0
MTEXT
  5
B7
100
AcDbEntity
100
AcDbMText
  8
contour
 62
256
370
-1
  6
ByLayer
 10
287.5509330778406252
 20
-146.0008281676557544
 30
0.0
 40
6.0
 41
100.0
 71
5
 72
2
  1
8.5
  7
normallatin1
 50
90.0
 73
0
 44
1.0
  0
MTEXT
  5
B8
100
AcDbEntity
100
AcDbMText
  8
contour
 62
256
370
-1
  6
ByLayer
 10
263.7947217245459797
 20
-196.7594412455026429
 30
0.0
 40
6.0
 41
100.0
 71
5
 72
2
  1
10.5
  7
normallatin1
 50
90.0
 73
0
 44
1.0
  0
LINE
  5
B9
100
AcDbEntity
100
AcDbLine
  8
helper
 62
256
370
-1
  6
ByLayer
 10
257.5000000000001137
 20
-226.0
 30
0.0
 11
257.5
 21
-126.0
 31
0.0
  0
LINE
  5
BA
100
AcDbEntity
100
AcDbLine
  8
helper
 62
256
370
-1
  6
ByLayer
 10
282.4999999999998863
 20
-226.0000000000000568
 30
0.0
 11
282.5
 21
-126.0000000000000142
 31
0.0
  0
LINE
  5
BB
100
AcDbEntity
100
AcDbLine
  8
helper
 62
256
370
-1
  6
ByLayer
 10
270.0
 20
-208.5
 30
0.0
 11
244.9999999999998863
 21
-208.4999999999999716
 31
0.0
  0
LINE
  5
BC
100
AcDbEntity
100
AcDbLine
  8
helper
 62
256
370
-1
  6
ByLayer
 10
295.0
 20
-166.0000000000000568
 30
0.0
 11
270.0
 21
-166.0
 31
0.0
  0
LINE
  5
BD
100
AcDbEntity
100
AcDbLine
  8
helper
 62
256
370
-1
  6
ByLayer
 10
295.0
 20
-136.0000000000000568
 30
0.0
 11
270.0
 21
-136.0000000000000284
 31
0.0
  0
LINE
  5
BE
100
AcDbEntity
100
AcDbLine
  8
contour
 62
256
370
-1
  6
ByLayer
 10
295.0
 20
-226.0
 30
0.0
 11
295.0
 21
-126.0000000000000142
 31
0.0
  0
LINE
  5
BF
100
AcDbEntity
100
AcDbLine
  8
contour
 62
256
370
-1
  6
ByLayer
 10
295.0
 20
-126.0000000000000142
 30
0.0
 11
320.0
 21
-126.0000000000000568
 31
0.0
  0
LINE
  5
C0
100
AcDbEntity
100
AcDbLine
  8
contour
 62
256
370
-1
  6
ByLayer
 10
320.0
 20
-226.0
 30
0.0
 11
295.0
 21
-226.0
 31
0.0
  0
LINE
  5
C1
100
AcDbEntity
100
AcDbLine
  8
contour
 62
256
370
-1
  6
ByLayer
 10
320.0
 20
-226.0
 30
0.0
 11
345.0000000000000568
 21
-226.0
 31
0.0
  0
LINE
  5
C2
100
AcDbEntity
100
AcDbLine
  8
contour
 62
256
370
-1
  6
ByLayer
 10
345.0000000000000568
 20
-226.0
 30
0.0
 11
345.0000000000000568
 21
-126.0000000000000853
 31
0.0
  0
LINE
  5
C3
100
AcDbEntity
100
AcDbLine
  8
contour
 62
256
370
-1
  6
ByLayer
 10
345.0000000000000568
 20
-126.0000000000000853
 30
0.0
 11
320.0
 21
-126.0000000000000568
 31
0.0
  0
LINE
  5
C4
100
AcDbEntity
100
AcDbLine
  8
bend
 62
256
370
-1
  6
ByLayer
 10
320.0
 20
-226.0
 30
0.0
 11
320.0
 21
-126.0000000000000568
 31
0.0
  0
MTEXT
  5
C5
100
AcDbEntity
100
AcDbMText
  8
contour
 62
256
370
-1
  6
ByLayer
 10
317.3135904191535701
 20
-175.0597652694564488
 30
0.0
 40
3.0
 41
100.0
 71
5
 72
2
  1
Bend\~here
  7
normallatin1
 50
90.0
 73
0
 44
1.0
  0
CIRCLE
  5
C6
100
AcDbEntity
100
AcDbCircle
  8
contour
 62
256
370
-1
  6
ByLayer
 10
307.5
 20
-208.5
 30
0.0
 40
5.25
  0
CIRCLE
  5
C7
100
AcDbEntity
100
AcDbCircle
  8
contour
 62
256
370
-1
  6
ByLayer
 10
332.5
 20
-143.5
 30
0.0
 40
5.25
  0
LINE
  5
C8
100
AcDbEntity
100
AcDbLine
  8
helper
 62
256
370
-1
  6
ByLayer
 10
320.0
 20
-208.5
 30
0.0
 11
295.0
 21
-208.5
 31
0.0
  0
LINE
  5
C9
100
AcDbEntity
100
AcDbLine
  8
helper
 62
256
370
-1
  6
ByLayer
 10
345.0000000000000568
 20
-143.5000000000000568
 30
0.0
 11
320.0
 21
-143.5
 31
0.0
  0
LINE
  5
CA
100
AcDbEntity
100
AcDbLine
  8
helper
 62
256
370
-1
  6
ByLayer
 10
332.5000000000000568
 20
-226.0
 30
0.0
 11
332.5000000000000568
 21
-126.0000000000000711
 31
0.0
  0
LINE
  5
CB
100
AcDbEntity
100
AcDbLine
  8
helper
 62
256
370
-1
  6
ByLayer
 10
307.5
 20
-226.0000000000000568
 30
0.0
 11
307.5
 21
-125.9999999999999858
 31
0.0
  0
MTEXT
  5
CC
100
AcDbEntity
100
AcDbMText
  8
contour
 62
256
370
-1
  6
ByLayer
 10
301.0826385628632806
 20
-196.3167789221505473
 30
0.0
 40
6.0
 41
100.0
 71
5
 72
2
  1
10.5
  7
normallatin1
 50
90.0
 73
0
 44
1.0
  0
MTEXT
  5
CD
100
AcDbEntity
100
AcDbMText
  8
contour
 62
256
370
-1
  6
ByLayer
 10
325.7979516167565635
 20
-155.9238419161609386
 30
0.0
 40
6.0
 41
100.0
 71
5
 72
2
  1
10.5
  7
normallatin1
 50
90.0
 73
0
 44
1.0
  0
MTEXT
  5
CE
100
AcDbEntity
100
AcDbMText
  8
contour
 62
256
370
-1
  6
ByLayer
 10
300.944306586813866
 20
-156.1543952095732095
 30
0.0
 40
6.0
 41
100.0
 71
5
 72
2
  1
"Cross\~block"
  7
normallatin1
 50
90.0
 73
0
 44
1.0
  0
LINE
  5
CF
100
AcDbEntity
100
AcDbLine
  8
contour
 62
256
370
-1
  6
ByLayer
 10
295.0
 20
-125.0000000000000284
 30
0.0
 11
320.0
 21
-125.0000000000000284
 31
0.0
  0
LINE
  5
D0
100
AcDbEntity
100
AcDbLine
  8
contour
 62
256
370
-1
  6
ByLayer
 10
295.0
 20
-125.0000000000000284
 30
0.0
 11
295.0000000000000568
 21
-25.0000000000000284
 31
0.0
  0
LINE
  5
D1
100
AcDbEntity
100
AcDbLine
  8
contour
 62
256
370
-1
  6
ByLayer
 10
295.0000000000000568
 20
-25.0000000000000284
 30
0.0
 11
320.0
 21
-24.9999999999999858
 31
0.0
  0
LINE
  5
D2
100
AcDbEntity
100
AcDbLine
  8
contour
 62
256
370
-1
  6
ByLayer
 10
320.0
 20
-125.0000000000000284
 30
0.0
 11
345.0
 21
-124.9999999999999716
 31
0.0
  0
LINE
  5
D3
100
AcDbEntity
100
AcDbLine
  8
contour
 62
256
370
-1
  6
ByLayer
 10
345.0
 20
-124.9999999999999716
 30
0.0
 11
345.0000000000001137
 21
-25.0000000000000853
 31
0.0
  0
LINE
  5
D4
100
AcDbEntity
100
AcDbLine
  8
contour
 62
256
370
-1
  6
ByLayer
 10
345.0000000000001137
 20
-25.0000000000000853
 30
0.0
 11
320.0
 21
-24.9999999999999858
 31
0.0
  0
LINE
  5
D5
100
AcDbEntity
100
AcDbLine
  8
bend
 62
256
370
-1
  6
ByLayer
 10
320.0
 20
-125.0000000000000284
 30
0.0
 11
320.0
 21
-24.9999999999999858
 31
0.0
  0
MTEXT
  5
D6
100
AcDbEntity
100
AcDbMText
  8
contour
 62
256
370
-1
  6
ByLayer
 10
317.313590419153627
 20
-74.0597652694564772
 30
0.0
 40
3.0
 41
100.0
 71
5
 72
2
  1
Bend\~here
  7
normallatin1
 50
90.0
 73
0
 44
1.0
  0
CIRCLE
  5
D7
100
AcDbEntity
100
AcDbCircle
  8
contour
 62
256
370
-1
  6
ByLayer
 10
307.5
 20
-107.5
 30
0.0
 40
5.25
  0
CIRCLE
  5
D8
100
AcDbEntity
100
AcDbCircle
  8
contour
 62
256
370
-1
  6
ByLayer
 10
332.5000000000001137
 20
-42.5000000000000711
 30
0.0
 40
5.25
  0
LINE
  5
D9
100
AcDbEntity
100
AcDbLine
  8
helper
 62
256
370
-1
  6
ByLayer
 10
320.0000000000000568
 20
-107.5000000000000426
 30
0.0
 11
295.0
 21
-107.5000000000000142
 31
0.0
  0
LINE
  5
DA
100
AcDbEntity
100
AcDbLine
  8
helper
 62
256
370
-1
  6
ByLayer
 10
345.0000000000001137
 20
-42.5000000000000568
 30
0.0
 11
320.0
 21
-42.5000000000000142
 31
0.0
  0
LINE
  5
DB
100
AcDbEntity
100
AcDbLine
  8
helper
 62
256
370
-1
  6
ByLayer
 10
332.5
 20
-125.0000000000000568
 30
0.0
 11
332.5
 21
-25.0
 31
0.0
  0
LINE
  5
DC
100
AcDbEntity
100
AcDbLine
  8
helper
 62
256
370
-1
  6
ByLayer
 10
307.5
 20
-125.0
 30
0.0
 11
307.5000000000000568
 21
-25.0000000000000284
 31
0.0
  0
MTEXT
  5
DD
100
AcDbEntity
100
AcDbMText
  8
contour
 62
256
370
-1
  6
ByLayer
 10
301.0826385628632238
 20
-95.3167789221505899
 30
0.0
 40
6.0
 41
100.0
 71
5
 72
2
  1
10.5
  7
normallatin1
 50
90.0
 73
0
 44
1.0
  0
MTEXT
  5
DE
100
AcDbEntity
100
AcDbMText
  8
contour
 62
256
370
-1
  6
ByLayer
 10
325.7979516167565635
 20
-54.9238419161609386
 30
0.0
 40
6.0
 41
100.0
 71
5
 72
2
  1
10.5
  7
normallatin1
 50
90.0
 73
0
 44
1.0
  0
MTEXT
  5
DF
100
AcDbEntity
100
AcDbMText
  8
contour
 62
256
370
-1
  6
ByLayer
 10
300.944306586813866
 20
-55.1543952095731811
 30
0.0
 40
6.0
 41
100.0
 71
5
 72
2
  1
"Cross\~block"
  7
normallatin1
 50
90.0
 73
0
 44
1.0
  0
ENDSEC
  0
SECTION
  2
OBJECTS
  0
DICTIONARY
  5
C
100
AcDbDictionary
280
0
281
1
  3
ACAD_GROUP
350
D
  3
ACAD_LAYOUT
350
1A
  3
ACAD_MLINESTYLE
350
17
  3
ACAD_PLOTSETTINGS
350
19
  3
ACAD_PLOTSTYLENAME
350
E
  3
AcDbVariableDictionary
350
E0
  0
DICTIONARY
  5
D
100
AcDbDictionary
280
0
281
1
  0
ACDBDICTIONARYWDFLT
  5
E
100
AcDbDictionary
281
1
  3
Normal
350
F
100
AcDbDictionaryWithDefault
340
F
  0
ACDBPLACEHOLDER
  5
F
  0
DICTIONARY
  5
17
100
AcDbDictionary
280
0
281
1
  3
Standard
350
18
  0
MLINESTYLE
  5
18
100
AcDbMlineStyle
  2
STANDARD
 70
0
  3

 62
256
 51
90.0
 52
90.0
 71
2
 49
0.5
 62
256
  6
BYLAYER
 49
-0.5
 62
256
  6
BYLAYER
  0
DICTIONARY
  5
19
100
AcDbDictionary
280
0
281
1
  0
DICTIONARY
  5
1A
100
AcDbDictionary
281
1
  3
Layout1
350
1E
  3
Layout2
350
26
  3
Model
350
22
  0
LAYOUT
  5
1E
100
AcDbPlotSettings
  1

  2
C:\Program Files\AutoCAD 2002\plotters\DWF ePlot (optimized for plotting).pc3
  4

  6

 40
0.0
 41
0.0
 42
0.0
 43
0.0
 44
0.0
 45
0.0
 46
0.0
 47
0.0
 48
0.0
 49
0.0
140
0.0
141
0.0
142
1.0
143
1.0
 70
688
 72
0
 73
0
 74
5
  7

 75
16
147
1.0
148
0.0
149
0.0
100
AcDbLayout
  1
Layout1
 70
1
 71
1
 10
0.0
 20
0.0
 11
420.0
 21
297.0
 12
0.0
 22
0.0
 32
0.0
 14
100000000000000000000.0
 24
100000000000000000000.0
 34
100000000000000000000.0
 15
-100000000000000000000.0
 25
-100000000000000000000.0
 35
-100000000000000000000.0
146
0.0
 13
0.0
 23
0.0
 33
0.0
 16
1.0
 26
0.0
 36
0.0
 17
0.0
 27
1.0
 37
0.0
 76
0
330
1B
  0
LAYOUT
  5
22
100
AcDbPlotSettings
  1

  2
C:\Program Files\AutoCAD 2002\plotters\DWF ePlot (optimized for plotting).pc3
  4

  6

 40
0.0
 41
0.0
 42
0.0
 43
0.0
 44
0.0
 45
0.0
 46
0.0
 47
0.0
 48
0.0
 49
0.0
140
0.0
141
0.0
142
1.0
143
1.0
 70
1712
 72
0
 73
0
 74
0
  7

 75
0
147
1.0
148
0.0
149
0.0
100
AcDbLayout
  1
Model
 70
1
 71
0
 10
0.0
 20
0.0
 11
12.0
 21
9.0
 12
0.0
 22
0.0
 32
0.0
 14
0.0
 24
0.0
 34
0.0
 15
0.0
 25
0.0
 35
0.0
146
0.0
 13
0.0
 23
0.0
 33
0.0
 16
1.0
 26
0.0
 36
0.0
 17
0.0
 27
1.0
 37
0.0
 76
0
330
1F
  0
LAYOUT
  5
26
100
AcDbPlotSettings
  1

  2
C:\Program Files\AutoCAD 2002\plotters\DWF ePlot (optimized for plotting).pc3
  4

  6

 40
0.0
 41
0.0
 42
0.0
 43
0.0
 44
0.0
 45
0.0
 46
0.0
 47
0.0
 48
0.0
 49
0.0
140
0.0
141
0.0
142
1.0
143
1.0
 70
688
 72
0
 73
0
 74
5
  7

 75
16
147
1.0
148
0.0
149
0.0
100
AcDbLayout
  1
Layout2
 70
1
 71
2
 10
0.0
 20
0.0
 11
12.0
 21
9.0
 12
0.0
 22
0.0
 32
0.0
 14
0.0
 24
0.0
 34
0.0
 15
0.0
 25
0.0
 35
0.0
146
0.0
 13
0.0
 23
0.0
 33
0.0
 16
1.0
 26
0.0
 36
0.0
 17
0.0
 27
1.0
 37
0.0
 76
0
330
23
  0
DICTIONARY
  5
E0
100
AcDbDictionary
281
1
  3
DIMASSOC
350
E2
  3
HIDETEXT
350
E1
  0
DICTIONARYVAR
  5
E1
100
DictionaryVariables
280
0
  1
2
  0
DICTIONARYVAR
  5
E2
100
DictionaryVariables
280
0
  1
1
  0
ENDSEC
  0
EOF
