  0
SECTION
  2
HEADER
  9
$LIMMIN
 10
-13.962929
 20
-30.019368
  9
$LIMMAX
 10
180.037071
 20
617.980632
  9
$EXTMIN
 10
-13.962929
 20
-30.019368
  9
$EXTMAX
 10
180.037071
 20
617.980632
  9
$ANGBASE
 50
0.000000
  9
$ANGDIR
 70
0
  9
$INSUNITS
 70
4
  9
$DIMALT
 70
4
  9
$DIMLUNIT
 70
2
  9
$DIMASZ
 40
3.000000
  9
$DIMTXT
 40
5.000000
  9
$DIMRND
 40
0.010000
  9
$DIMEXE
 40
2.000000
  9
$DIMEXO
 40
2.000000
  9
$DIMAUNIT
 70
0
  9
$DIMADEC
 70
2
  9
$GRIDUNIT
 10
0.001000
 20
0.001000
  9
$PLIMMIN
 10
0.000000
 20
0.000000
  9
$PLIMMAX
 10
594.000000
 20
841.000000
  9
$PSVPSCALE
 40
1.000000
  0
ENDSEC
  0
SECTION
  2
TABLES
  0
TABLE
  2
LTYPE
 70
     1
  0
LTYPE
  2
CONTINUOUS
 70
    64
  3
Ausgez
 72
    65
 73
  0
 40
0.000000
  0
ENDTAB
  0
TABLE
  2
LAYER
 70
     1
  0
LAYER
  2
default
 70
    64
 62
7
  6
CONTINUOUS
  0
LAYER
  2
helper
 70
    64
 62
7
  6
CONTINUOUS
  0
LAYER
  2
contour
 70
    64
 62
7
  6
CONTINUOUS
  0
ENDTAB
  0
ENDSEC
  0
SECTION
  2
BLOCKS
  0
ENDSEC
  0
SECTION
  2
ENTITIES
  0
LINE
  8
helper
  6
CONTINUOUS
 10
1098.037071
 20
-1294.086982
 11
1098.037071
 21
-2191.124549
 39
0
 62
7
  0
LINE
  8
helper
  6
CONTINUOUS
 10
1140.037071
 20
-1294.086982
 11
1140.037071
 21
-2191.124549
 39
0
 62
7
  0
CIRCLE
  8
contour
  6
CONTINUOUS
 10
62.537071
 20
521.980632
 40
2.750000
 39
3
 62
7
  0
CIRCLE
  8
contour
  6
CONTINUOUS
 10
103.537071
 20
521.980632
 40
2.750000
 39
3
 62
7
  0
CIRCLE
  8
contour
  6
CONTINUOUS
 10
103.537071
 20
457.980632
 40
2.750000
 39
3
 62
7
  0
CIRCLE
  8
contour
  6
CONTINUOUS
 10
62.537071
 20
457.980632
 40
2.750000
 39
3
 62
7
  0
CIRCLE
  8
contour
  6
CONTINUOUS
 10
62.537071
 20
65.980632
 40
2.750000
 39
3
 62
7
  0
CIRCLE
  8
contour
  6
CONTINUOUS
 10
103.537071
 20
65.980632
 40
2.750000
 39
3
 62
7
  0
CIRCLE
  8
contour
  6
CONTINUOUS
 10
103.537071
 20
129.980632
 40
2.750000
 39
3
 62
7
  0
CIRCLE
  8
contour
  6
CONTINUOUS
 10
62.537071
 20
129.980632
 40
2.750000
 39
3
 62
7
  0
ARC
  8
contour
  6
CONTINUOUS
 10
83.037071
 20
571.961559
 40
46.019073
 50
36.355279
 51
90.000000
 39
3
 62
7
  0
ARC
  8
contour
  6
CONTINUOUS
 10
-3.222935
 20
508.469063
 40
153.126896
 50
11.502305
 51
36.355279
 39
3
 62
7
  0
ARC
  8
contour
  6
CONTINUOUS
 10
-486.953053
 20
410.032792
 40
646.771025
 50
4.148419
 51
11.502305
 39
3
 62
7
  0
ARC
  8
contour
  6
CONTINUOUS
 10
-2087.002435
 20
293.980632
 40
2251.023539
 50
0.000000
 51
4.148419
 39
3
 62
7
  0
ARC
  8
contour
  6
CONTINUOUS
 10
83.037071
 20
571.961559
 40
46.019073
 50
90.000000
 51
143.644721
 39
3
 62
7
  0
ARC
  8
contour
  6
CONTINUOUS
 10
169.297077
 20
508.469063
 40
153.126896
 50
143.644721
 51
168.497695
 39
3
 62
7
  0
ARC
  8
contour
  6
CONTINUOUS
 10
653.027195
 20
410.032792
 40
646.771025
 50
168.497695
 51
175.851581
 39
3
 62
7
  0
ARC
  8
contour
  6
CONTINUOUS
 10
2253.076577
 20
293.980632
 40
2251.023539
 50
175.851581
 51
180.000000
 39
3
 62
7
  0
ARC
  8
contour
  6
CONTINUOUS
 10
83.037071
 20
15.999705
 40
46.019073
 50
270.000000
 51
323.644721
 39
3
 62
7
  0
ARC
  8
contour
  6
CONTINUOUS
 10
-3.222935
 20
79.492201
 40
153.126896
 50
323.644721
 51
348.497695
 39
3
 62
7
  0
ARC
  8
contour
  6
CONTINUOUS
 10
-486.953053
 20
177.928472
 40
646.771025
 50
348.497695
 51
355.851581
 39
3
 62
7
  0
ARC
  8
contour
  6
CONTINUOUS
 10
-2087.002435
 20
293.980632
 40
2251.023539
 50
355.851581
 51
0.000000
 39
3
 62
7
  0
ARC
  8
contour
  6
CONTINUOUS
 10
83.037071
 20
15.999705
 40
46.019073
 50
216.355279
 51
270.000000
 39
3
 62
7
  0
ARC
  8
contour
  6
CONTINUOUS
 10
169.297077
 20
79.492201
 40
153.126896
 50
191.502305
 51
216.355279
 39
3
 62
7
  0
ARC
  8
contour
  6
CONTINUOUS
 10
653.027195
 20
177.928472
 40
646.771025
 50
184.148419
 51
191.502305
 39
3
 62
7
  0
ARC
  8
contour
  6
CONTINUOUS
 10
2253.076577
 20
293.980632
 40
2251.023539
 50
180.000000
 51
184.148419
 39
3
 62
7
  0
LINE
  8
contour
  6
CONTINUOUS
 10
-13.962929
 20
539.480632
 11
-13.962929
 21
474.480632
 39
3
 62
7
  0
LINE
  8
contour
  6
CONTINUOUS
 10
-13.962929
 20
539.480632
 11
19.343321
 21
539.480632
 39
3
 62
7
  0
LINE
  8
contour
  6
CONTINUOUS
 10
-13.962929
 20
474.480632
 11
9.475150
 21
474.480632
 39
3
 62
7
  0
LINE
  8
contour
  6
CONTINUOUS
 10
180.037071
 20
539.480632
 11
180.037071
 21
474.480632
 39
3
 62
7
  0
LINE
  8
contour
  6
CONTINUOUS
 10
180.037071
 20
539.480632
 11
146.730821
 21
539.480632
 39
3
 62
7
  0
LINE
  8
contour
  6
CONTINUOUS
 10
180.037071
 20
474.480632
 11
156.598992
 21
474.480632
 39
3
 62
7
  0
LINE
  8
contour
  6
CONTINUOUS
 10
-13.962929
 20
48.480632
 11
-13.962929
 21
113.480632
 39
3
 62
7
  0
LINE
  8
contour
  6
CONTINUOUS
 10
-13.962929
 20
48.480632
 11
19.343321
 21
48.480632
 39
3
 62
7
  0
LINE
  8
contour
  6
CONTINUOUS
 10
-13.962929
 20
113.480632
 11
9.475150
 21
113.480632
 39
3
 62
7
  0
LINE
  8
contour
  6
CONTINUOUS
 10
180.037071
 20
48.480632
 11
180.037071
 21
113.480632
 39
3
 62
7
  0
LINE
  8
contour
  6
CONTINUOUS
 10
180.037071
 20
48.480632
 11
146.730821
 21
48.480632
 39
3
 62
7
  0
LINE
  8
contour
  6
CONTINUOUS
 10
180.037071
 20
113.480632
 11
156.598992
 21
113.480632
 39
3
 62
7
  0
ENDSEC
  0
EOF
