  0
SECTION
  2
HEADER
  9
$LIMMIN
 10
0.000000
 20
0.000000
  9
$LIMMAX
 10
376.247152
 20
758.849408
  9
$EXTMIN
 10
0.000000
 20
0.000000
  9
$EXTMAX
 10
376.247152
 20
758.849408
  9
$ANGBASE
 50
0.000000
  9
$ANGDIR
 70
0
  9
$INSUNITS
 70
4
  9
$DIMALT
 70
4
  9
$DIMLUNIT
 70
2
  9
$DIMASZ
 40
3.000000
  9
$DIMTXT
 40
5.000000
  9
$DIMRND
 40
0.010000
  9
$DIMEXE
 40
2.000000
  9
$DIMEXO
 40
2.000000
  9
$DIMAUNIT
 70
0
  9
$DIMADEC
 70
2
  9
$GRIDUNIT
 10
0.001000
 20
0.001000
  9
$PLIMMIN
 10
0.000000
 20
0.000000
  9
$PLIMMAX
 10
594.000000
 20
841.000000
  9
$PSVPSCALE
 40
1.000000
  0
ENDSEC
  0
SECTION
  2
TABLES
  0
TABLE
  2
LTYPE
 70
     1
  0
LTYPE
  2
CONTINUOUS
 70
    64
  3
Ausgez
 72
    65
 73
  0
 40
0.000000
  0
ENDTAB
  0
TABLE
  2
LAYER
 70
     1
  0
LAYER
  2
default
 70
    64
 62
7
  6
CONTINUOUS
  0
LAYER
  2
contour
 70
    64
 62
7
  6
CONTINUOUS
  0
ENDTAB
  0
ENDSEC
  0
SECTION
  2
BLOCKS
  0
ENDSEC
  0
SECTION
  2
ENTITIES
  0
CIRCLE
  8
contour
  6
CONTINUOUS
 10
258.747152
 20
662.849408
 40
2.750000
 39
3
 62
7
  0
CIRCLE
  8
contour
  6
CONTINUOUS
 10
299.747152
 20
662.849408
 40
2.750000
 39
3
 62
7
  0
CIRCLE
  8
contour
  6
CONTINUOUS
 10
299.747152
 20
598.849408
 40
2.750000
 39
3
 62
7
  0
CIRCLE
  8
contour
  6
CONTINUOUS
 10
258.747152
 20
598.849408
 40
2.750000
 39
3
 62
7
  0
CIRCLE
  8
contour
  6
CONTINUOUS
 10
258.747152
 20
206.849408
 40
2.750000
 39
3
 62
7
  0
CIRCLE
  8
contour
  6
CONTINUOUS
 10
299.747152
 20
206.849408
 40
2.750000
 39
3
 62
7
  0
CIRCLE
  8
contour
  6
CONTINUOUS
 10
299.747152
 20
270.849408
 40
2.750000
 39
3
 62
7
  0
CIRCLE
  8
contour
  6
CONTINUOUS
 10
258.747152
 20
270.849408
 40
2.750000
 39
3
 62
7
  0
ARC
  8
contour
  6
CONTINUOUS
 10
279.247152
 20
712.830335
 40
46.019073
 50
36.355279
 51
90.000000
 39
3
 62
7
  0
ARC
  8
contour
  6
CONTINUOUS
 10
-1890.792354
 20
434.849408
 40
2251.023539
 50
0.000000
 51
4.148419
 39
3
 62
7
  0
ARC
  8
contour
  6
CONTINUOUS
 10
279.247152
 20
712.830335
 40
46.019073
 50
90.000000
 51
143.644721
 39
3
 62
7
  0
ARC
  8
contour
  6
CONTINUOUS
 10
2449.286658
 20
434.849408
 40
2251.023539
 50
175.851581
 51
180.000000
 39
3
 62
7
  0
ARC
  8
contour
  6
CONTINUOUS
 10
279.247152
 20
156.868481
 40
46.019073
 50
270.000000
 51
323.644721
 39
3
 62
7
  0
ARC
  8
contour
  6
CONTINUOUS
 10
-1890.792354
 20
434.849408
 40
2251.023539
 50
355.851581
 51
0.000000
 39
3
 62
7
  0
ARC
  8
contour
  6
CONTINUOUS
 10
279.247152
 20
156.868481
 40
46.019073
 50
216.355279
 51
270.000000
 39
3
 62
7
  0
ARC
  8
contour
  6
CONTINUOUS
 10
2449.286658
 20
434.849408
 40
2251.023539
 50
180.000000
 51
184.148419
 39
3
 62
7
  0
LINE
  8
contour
  6
CONTINUOUS
 10
182.247152
 20
680.349408
 11
182.247152
 21
615.349408
 39
3
 62
7
  0
LINE
  8
contour
  6
CONTINUOUS
 10
376.247152
 20
680.349408
 11
376.247152
 21
615.349408
 39
3
 62
7
  0
LINE
  8
contour
  6
CONTINUOUS
 10
182.247152
 20
189.349408
 11
182.247152
 21
254.349408
 39
3
 62
7
  0
LINE
  8
contour
  6
CONTINUOUS
 10
182.247152
 20
615.349408
 11
224.247152
 21
615.349408
 39
3
 62
7
  0
LINE
  8
contour
  6
CONTINUOUS
 10
182.247152
 20
680.349408
 11
224.247152
 21
680.349408
 39
3
 62
7
  0
LINE
  8
contour
  6
CONTINUOUS
 10
224.247152
 20
680.349408
 11
224.247152
 21
615.349408
 39
3
 62
7
  0
LINE
  8
contour
  6
CONTINUOUS
 10
376.247152
 20
680.349408
 11
334.247152
 21
680.349408
 39
3
 62
7
  0
LINE
  8
contour
  6
CONTINUOUS
 10
334.247152
 20
680.349408
 11
334.247152
 21
615.349408
 39
3
 62
7
  0
LINE
  8
contour
  6
CONTINUOUS
 10
376.247152
 20
615.349408
 11
334.247152
 21
615.349408
 39
3
 62
7
  0
LINE
  8
contour
  6
CONTINUOUS
 10
182.247152
 20
254.349408
 11
224.247152
 21
254.349408
 39
3
 62
7
  0
LINE
  8
contour
  6
CONTINUOUS
 10
182.247152
 20
189.349408
 11
224.247152
 21
189.349408
 39
3
 62
7
  0
LINE
  8
contour
  6
CONTINUOUS
 10
224.247152
 20
189.349408
 11
224.247152
 21
254.349408
 39
3
 62
7
  0
LINE
  8
contour
  6
CONTINUOUS
 10
376.247152
 20
254.349408
 11
334.247152
 21
254.349408
 39
3
 62
7
  0
LINE
  8
contour
  6
CONTINUOUS
 10
376.247152
 20
189.349408
 11
376.247152
 21
254.349408
 39
3
 62
7
  0
LINE
  8
contour
  6
CONTINUOUS
 10
334.247152
 20
189.349408
 11
334.247152
 21
254.349408
 39
3
 62
7
  0
LINE
  8
contour
  6
CONTINUOUS
 10
376.247152
 20
189.349408
 11
334.247152
 21
189.349408
 39
3
 62
7
  0
LINE
  8
contour
  6
CONTINUOUS
 10
250.747152
 20
198.849408
 11
307.747152
 21
198.849408
 39
3
 62
7
  0
LINE
  8
contour
  6
CONTINUOUS
 10
250.747152
 20
670.849408
 11
307.747152
 21
670.849408
 39
3
 62
7
  0
LINE
  8
contour
  6
CONTINUOUS
 10
250.747152
 20
590.849408
 11
307.747152
 21
590.849408
 39
3
 62
7
  0
LINE
  8
contour
  6
CONTINUOUS
 10
250.747152
 20
278.849408
 11
307.747152
 21
278.849408
 39
3
 62
7
  0
LINE
  8
contour
  6
CONTINUOUS
 10
224.247152
 20
658.849408
 11
334.247152
 21
658.849408
 39
3
 62
7
  0
LINE
  8
contour
  6
CONTINUOUS
 10
224.247152
 20
636.849408
 11
334.247152
 21
636.849408
 39
3
 62
7
  0
LINE
  8
contour
  6
CONTINUOUS
 10
224.247152
 20
210.849408
 11
334.247152
 21
210.849408
 39
3
 62
7
  0
LINE
  8
contour
  6
CONTINUOUS
 10
224.247152
 20
232.849408
 11
334.247152
 21
232.849408
 39
3
 62
7
  0
LINE
  8
contour
  6
CONTINUOUS
 10
250.747152
 20
636.849408
 11
250.747152
 21
590.849408
 39
3
 62
7
  0
LINE
  8
contour
  6
CONTINUOUS
 10
307.747152
 20
636.849408
 11
307.747152
 21
590.849408
 39
3
 62
7
  0
LINE
  8
contour
  6
CONTINUOUS
 10
307.747152
 20
670.849408
 11
307.747152
 21
658.849408
 39
3
 62
7
  0
LINE
  8
contour
  6
CONTINUOUS
 10
250.747152
 20
670.849408
 11
250.747152
 21
658.849408
 39
3
 62
7
  0
LINE
  8
contour
  6
CONTINUOUS
 10
250.747152
 20
278.849408
 11
250.747152
 21
232.849408
 39
3
 62
7
  0
LINE
  8
contour
  6
CONTINUOUS
 10
250.747152
 20
210.849408
 11
250.747152
 21
198.849408
 39
3
 62
7
  0
LINE
  8
contour
  6
CONTINUOUS
 10
307.747152
 20
210.849408
 11
307.747152
 21
198.849408
 39
3
 62
7
  0
LINE
  8
contour
  6
CONTINUOUS
 10
307.747152
 20
278.849408
 11
307.747152
 21
232.849408
 39
3
 62
7
  0
ARC
  8
contour
  6
CONTINUOUS
 10
365.507158
 20
649.337839
 40
153.126896
 50
143.644721
 51
168.315521
 39
3
 62
7
  0
ARC
  8
contour
  6
CONTINUOUS
 10
192.987146
 20
649.337839
 40
153.126896
 50
11.684479
 51
36.355279
 39
3
 62
7
  0
ARC
  8
contour
  6
CONTINUOUS
 10
365.507158
 20
220.360977
 40
153.126896
 50
191.684479
 51
216.355279
 39
3
 62
7
  0
ARC
  8
contour
  6
CONTINUOUS
 10
192.987146
 20
220.360977
 40
153.126896
 50
323.644721
 51
348.315521
 39
3
 62
7
  0
ARC
  8
contour
  6
CONTINUOUS
 10
-290.742972
 20
318.797248
 40
646.771025
 50
354.281241
 51
355.851581
 39
3
 62
7
  0
ARC
  8
contour
  6
CONTINUOUS
 10
849.237276
 20
318.797248
 40
646.771025
 50
184.148419
 51
185.718759
 39
3
 62
7
  0
ARC
  8
contour
  6
CONTINUOUS
 10
849.237276
 20
550.901568
 40
646.771025
 50
174.281241
 51
175.851581
 39
3
 62
7
  0
ARC
  8
contour
  6
CONTINUOUS
 10
-290.742972
 20
550.901568
 40
646.771025
 50
4.148419
 51
5.718759
 39
3
 62
7
  0
ENDSEC
  0
EOF
