  0
SECTION
  2
HEADER
  9
$LIMMIN
 10
0.000000
 20
0.000000
  9
$LIMMAX
 10
204.635289
 20
286.693978
  9
$EXTMIN
 10
0.000000
 20
0.000000
  9
$EXTMAX
 10
204.635289
 20
286.693978
  9
$ANGBASE
 50
0.000000
  9
$ANGDIR
 70
0
  9
$INSUNITS
 70
4
  9
$DIMALT
 70
4
  9
$DIMLUNIT
 70
2
  9
$DIMASZ
 40
2.500000
  9
$DIMTXT
 40
2.500000
  9
$DIMRND
 40
0.010000
  9
$DIMEXE
 40
1.250000
  9
$DIMEXO
 40
0.625000
  9
$DIMAUNIT
 70
0
  9
$DIMADEC
 70
2
  9
$GRIDUNIT
 10
0.001000
 20
20.000000
  9
$PLIMMIN
 10
0.000000
 20
0.000000
  9
$PLIMMAX
 10
210.000000
 20
297.000000
  9
$PSVPSCALE
 40
1.000000
  0
ENDSEC
  0
SECTION
  2
TABLES
  0
TABLE
  2
LTYPE
 70
     1
  0
LTYPE
  2
CONTINUOUS
 70
    64
  3
Ausgez
 72
    65
 73
  0
 40
0.000000
  0
ENDTAB
  0
TABLE
  2
LAYER
 70
     1
  0
LAYER
  2
contour
 70
    64
 62
7
  6
CONTINUOUS
  0
LAYER
  2
helper
 70
    64
 62
7
  6
CONTINUOUS
  0
LAYER
  2
mark
 70
    64
 62
7
  6
CONTINUOUS
  0
ENDTAB
  0
ENDSEC
  0
SECTION
  2
BLOCKS
  0
ENDSEC
  0
SECTION
  2
ENTITIES
  0
CIRCLE
  8
contour
  6
CONTINUOUS
 10
80.000000
 20
80.000000
 40
71.500000
 39
4
 62
7
  0
CIRCLE
  8
contour
  6
CONTINUOUS
 10
133.135289
 20
215.193978
 40
71.500000
 39
4
 62
7
  0
TEXT
  8
contour
  6
CONTINUOUS
 10
165.882009
 20
173.734506
 40
4.000000
 50
0.000000
 72
0
  7
Courier#0.800000#2.400000
  1
10.5
 39
4
 62
7
  0
CIRCLE
  8
contour
  6
CONTINUOUS
 10
123.175289
 20
215.193978
 40
1.550000
 39
4
 62
7
  0
CIRCLE
  8
contour
  6
CONTINUOUS
 10
103.255289
 20
215.193978
 40
1.550000
 39
4
 62
7
  0
CIRCLE
  8
contour
  6
CONTINUOUS
 10
143.095289
 20
215.193978
 40
1.550000
 39
4
 62
7
  0
CIRCLE
  8
contour
  6
CONTINUOUS
 10
163.015289
 20
215.193978
 40
1.550000
 39
4
 62
7
  0
TEXT
  8
contour
  6
CONTINUOUS
 10
98.636807
 20
210.863207
 40
4.000000
 50
0.000000
 72
1
  7
Courier#0.800000#2.400000
  1
3.1
 39
4
 62
7
  0
TEXT
  8
contour
  6
CONTINUOUS
 10
118.594607
 20
211.043007
 40
4.000000
 50
0.000000
 72
1
  7
Courier#0.800000#2.400000
  1
3.1
 39
4
 62
7
  0
TEXT
  8
contour
  6
CONTINUOUS
 10
138.732208
 20
210.683407
 40
4.000000
 50
0.000000
 72
1
  7
Courier#0.800000#2.400000
  1
3.1
 39
4
 62
7
  0
TEXT
  8
contour
  6
CONTINUOUS
 10
158.690009
 20
211.043007
 40
4.000000
 50
0.000000
 72
1
  7
Courier#0.800000#2.400000
  1
3.1
 39
4
 62
7
  0
CIRCLE
  8
contour
  6
CONTINUOUS
 10
103.255289
 20
163.451847
 40
5.250000
 39
4
 62
7
  0
CIRCLE
  8
contour
  6
CONTINUOUS
 10
123.175289
 20
156.279965
 40
5.250000
 39
4
 62
7
  0
CIRCLE
  8
contour
  6
CONTINUOUS
 10
143.095289
 20
156.279965
 40
5.250000
 39
4
 62
7
  0
CIRCLE
  8
contour
  6
CONTINUOUS
 10
163.015289
 20
163.451847
 40
5.250000
 39
4
 62
7
  0
TEXT
  8
contour
  6
CONTINUOUS
 10
84.297756
 20
234.866508
 40
4.000000
 50
0.000000
 72
1
  7
Courier#0.800000#2.400000
  1
9.96mm
 39
4
 62
7
  0
TEXT
  8
contour
  6
CONTINUOUS
 10
84.297756
 20
229.266508
 40
4.000000
 50
0.000000
 72
1
  7
Courier#0.800000#2.400000
  1
terminal
 39
4
 62
7
  0
TEXT
  8
contour
  6
CONTINUOUS
 10
84.297756
 20
223.666508
 40
4.000000
 50
0.000000
 72
1
  7
Courier#0.800000#2.400000
  1
pitch
 39
4
 62
7
  0
TEXT
  8
contour
  6
CONTINUOUS
 10
147.657480
 20
148.695557
 40
4.000000
 50
0.000000
 72
1
  7
Courier#0.800000#2.400000
  1
10.5
 39
4
 62
7
  0
TEXT
  8
contour
  6
CONTINUOUS
 10
128.095240
 20
148.350341
 40
4.000000
 50
0.000000
 72
1
  7
Courier#0.800000#2.400000
  1
10.5
 39
4
 62
7
  0
TEXT
  8
contour
  6
CONTINUOUS
 10
107.842567
 20
171.709958
 40
4.000000
 50
0.000000
 72
1
  7
Courier#0.800000#2.400000
  1
10.5
 39
4
 62
7
  0
TEXT
  8
contour
  6
CONTINUOUS
 10
112.746719
 20
38.540528
 40
4.000000
 50
0.000000
 72
0
  7
Courier#0.800000#2.400000
  1
10.5
 39
4
 62
7
  0
CIRCLE
  8
contour
  6
CONTINUOUS
 10
70.040000
 20
80.000000
 40
1.550000
 39
4
 62
7
  0
CIRCLE
  8
contour
  6
CONTINUOUS
 10
50.120000
 20
80.000000
 40
1.550000
 39
4
 62
7
  0
CIRCLE
  8
contour
  6
CONTINUOUS
 10
89.960000
 20
80.000000
 40
1.550000
 39
4
 62
7
  0
CIRCLE
  8
contour
  6
CONTINUOUS
 10
109.880000
 20
80.000000
 40
1.550000
 39
4
 62
7
  0
TEXT
  8
contour
  6
CONTINUOUS
 10
45.501517
 20
75.669229
 40
4.000000
 50
0.000000
 72
1
  7
Courier#0.800000#2.400000
  1
3.1
 39
4
 62
7
  0
TEXT
  8
contour
  6
CONTINUOUS
 10
65.459318
 20
75.849029
 40
4.000000
 50
0.000000
 72
1
  7
Courier#0.800000#2.400000
  1
3.1
 39
4
 62
7
  0
TEXT
  8
contour
  6
CONTINUOUS
 10
85.596919
 20
75.489429
 40
4.000000
 50
0.000000
 72
1
  7
Courier#0.800000#2.400000
  1
3.1
 39
4
 62
7
  0
TEXT
  8
contour
  6
CONTINUOUS
 10
105.554719
 20
75.849029
 40
4.000000
 50
0.000000
 72
1
  7
Courier#0.800000#2.400000
  1
3.1
 39
4
 62
7
  0
CIRCLE
  8
contour
  6
CONTINUOUS
 10
50.120000
 20
28.257869
 40
5.250000
 39
4
 62
7
  0
CIRCLE
  8
contour
  6
CONTINUOUS
 10
70.040000
 20
21.085987
 40
5.250000
 39
4
 62
7
  0
CIRCLE
  8
contour
  6
CONTINUOUS
 10
89.960000
 20
21.085987
 40
5.250000
 39
4
 62
7
  0
CIRCLE
  8
contour
  6
CONTINUOUS
 10
109.880000
 20
28.257869
 40
5.250000
 39
4
 62
7
  0
TEXT
  8
contour
  6
CONTINUOUS
 10
31.162467
 20
99.672530
 40
4.000000
 50
0.000000
 72
1
  7
Courier#0.800000#2.400000
  1
9.96mm
 39
4
 62
7
  0
TEXT
  8
contour
  6
CONTINUOUS
 10
31.162467
 20
94.072530
 40
4.000000
 50
0.000000
 72
1
  7
Courier#0.800000#2.400000
  1
terminal
 39
4
 62
7
  0
TEXT
  8
contour
  6
CONTINUOUS
 10
31.162467
 20
88.472530
 40
4.000000
 50
0.000000
 72
1
  7
Courier#0.800000#2.400000
  1
pitch
 39
4
 62
7
  0
TEXT
  8
contour
  6
CONTINUOUS
 10
94.522191
 20
13.501579
 40
4.000000
 50
0.000000
 72
1
  7
Courier#0.800000#2.400000
  1
10.5
 39
4
 62
7
  0
TEXT
  8
contour
  6
CONTINUOUS
 10
74.959950
 20
13.156363
 40
4.000000
 50
0.000000
 72
1
  7
Courier#0.800000#2.400000
  1
10.5
 39
4
 62
7
  0
TEXT
  8
contour
  6
CONTINUOUS
 10
54.707278
 20
36.515980
 40
4.000000
 50
0.000000
 72
1
  7
Courier#0.800000#2.400000
  1
10.5
 39
4
 62
7
  0
TEXT
  8
contour
  6
CONTINUOUS
 10
149.700008
 20
241.384258
 40
4.000000
 50
90.000000
 72
1
  7
Courier#0.800000#2.400000
  1
Cap\~seam
 39
4
 62
7
  0
TEXT
  8
contour
  6
CONTINUOUS
 10
96.564719
 20
106.190280
 40
4.000000
 50
90.000000
 72
1
  7
Courier#0.800000#2.400000
  1
Cap\~seam
 39
4
 62
7
  0
CIRCLE
  8
contour
  6
CONTINUOUS
 10
133.135289
 20
274.943978
 40
4.250000
 39
4
 62
7
  0
CIRCLE
  8
contour
  6
CONTINUOUS
 10
80.000000
 20
139.750000
 40
4.250000
 39
4
 62
7
  0
TEXT
  8
contour
  6
CONTINUOUS
 10
139.330107
 20
269.828645
 40
4.000000
 50
0.000000
 72
1
  7
Courier#0.800000#2.400000
  1
8.5
 39
4
 62
7
  0
TEXT
  8
contour
  6
CONTINUOUS
 10
86.194817
 20
134.634667
 40
4.000000
 50
0.000000
 72
1
  7
Courier#0.800000#2.400000
  1
8.5
 39
4
 62
7
  0
LINE
  8
helper
  6
CONTINUOUS
 10
61.635289
 20
215.193978
 11
204.635289
 21
215.193978
 39
1
 62
7
  0
LINE
  8
helper
  6
CONTINUOUS
 10
103.255289
 20
150.236795
 11
103.255289
 21
280.151161
 39
1
 62
7
  0
LINE
  8
helper
  6
CONTINUOUS
 10
123.175289
 20
144.391094
 11
123.175289
 21
285.996862
 39
1
 62
7
  0
LINE
  8
helper
  6
CONTINUOUS
 10
143.095289
 20
144.391094
 11
143.095289
 21
285.996862
 39
1
 62
7
  0
LINE
  8
helper
  6
CONTINUOUS
 10
163.015289
 20
150.236795
 11
163.015289
 21
280.151161
 39
1
 62
7
  0
LINE
  8
helper
  6
CONTINUOUS
 10
92.621229
 20
156.279965
 11
173.649350
 21
156.279965
 39
1
 62
7
  0
LINE
  8
helper
  6
CONTINUOUS
 10
83.789551
 20
163.451847
 11
182.481028
 21
163.451847
 39
1
 62
7
  0
LINE
  8
helper
  6
CONTINUOUS
 10
8.500000
 20
80.000000
 11
151.500000
 21
80.000000
 39
1
 62
7
  0
LINE
  8
helper
  6
CONTINUOUS
 10
50.120000
 20
15.042817
 11
50.120000
 21
144.957183
 39
1
 62
7
  0
LINE
  8
helper
  6
CONTINUOUS
 10
70.040000
 20
9.197116
 11
70.040000
 21
150.802884
 39
1
 62
7
  0
LINE
  8
helper
  6
CONTINUOUS
 10
89.960000
 20
9.197116
 11
89.960000
 21
150.802884
 39
1
 62
7
  0
LINE
  8
helper
  6
CONTINUOUS
 10
109.880000
 20
15.042817
 11
109.880000
 21
144.957183
 39
1
 62
7
  0
LINE
  8
helper
  6
CONTINUOUS
 10
39.485939
 20
21.085987
 11
120.514061
 21
21.085987
 39
1
 62
7
  0
LINE
  8
helper
  6
CONTINUOUS
 10
30.654262
 20
28.257869
 11
129.345738
 21
28.257869
 39
1
 62
7
  0
LINE
  8
helper
  6
CONTINUOUS
 10
40.729305
 20
139.750000
 11
119.270695
 21
139.750000
 39
1
 62
7
  0
LINE
  8
helper
  6
CONTINUOUS
 10
93.864594
 20
274.943978
 11
172.405985
 21
274.943978
 39
1
 62
7
  0
LINE
  8
helper
  6
CONTINUOUS
 10
80.000000
 20
151.500000
 11
80.000000
 21
80.000000
 39
1
 62
7
  0
LINE
  8
helper
  6
CONTINUOUS
 10
133.135289
 20
286.693978
 11
133.135289
 21
215.193978
 39
1
 62
7
  0
LINE
  8
mark
  6
CONTINUOUS
 10
150.034801
 20
255.993008
 11
160.497155
 21
281.251365
 39
4
 62
7
  0
LINE
  8
mark
  6
CONTINUOUS
 10
96.899512
 20
120.799030
 11
107.361865
 21
146.057387
 39
4
 62
7
  0
ENDSEC
  0
EOF
