  0
SECTION
  2
HEADER
  9
$LIMMIN
 10
0.000000
 20
0.000000
  9
$LIMMAX
 10
202.852863
 20
286.811133
  9
$EXTMIN
 10
0.000000
 20
0.000000
  9
$EXTMAX
 10
202.852863
 20
286.811133
  9
$ANGBASE
 50
0.000000
  9
$ANGDIR
 70
0
  9
$INSUNITS
 70
4
  9
$DIMALT
 70
4
  9
$DIMLUNIT
 70
2
  9
$DIMASZ
 40
2.500000
  9
$DIMTXT
 40
2.500000
  9
$DIMRND
 40
0.010000
  9
$DIMEXE
 40
1.250000
  9
$DIMEXO
 40
0.625000
  9
$DIMAUNIT
 70
0
  9
$DIMADEC
 70
2
  9
$GRIDUNIT
 10
0.001000
 20
20.000000
  9
$PLIMMIN
 10
0.000000
 20
0.000000
  9
$PLIMMAX
 10
210.000000
 20
297.000000
  9
$PSVPSCALE
 40
1.000000
  0
ENDSEC
  0
SECTION
  2
TABLES
  0
TABLE
  2
LTYPE
 70
     1
  0
LTYPE
  2
CONTINUOUS
 70
    64
  3
Ausgez
 72
    65
 73
  0
 40
0.000000
  0
ENDTAB
  0
TABLE
  2
LAYER
 70
     1
  0
LAYER
  2
contour
 70
    64
 62
7
  6
CONTINUOUS
  0
LAYER
  2
helper
 70
    64
 62
7
  6
CONTINUOUS
  0
LAYER
  2
mark
 70
    64
 62
7
  6
CONTINUOUS
  0
ENDTAB
  0
ENDSEC
  0
SECTION
  2
BLOCKS
  0
ENDSEC
  0
SECTION
  2
ENTITIES
  0
CIRCLE
  8
contour
  6
CONTINUOUS
 10
78.217573
 20
80.117155
 40
71.500000
 39
4
 62
7
  0
CIRCLE
  8
contour
  6
CONTINUOUS
 10
131.352863
 20
215.311133
 40
71.500000
 39
4
 62
7
  0
CIRCLE
  8
contour
  6
CONTINUOUS
 10
96.762863
 20
215.311133
 40
1.550000
 39
4
 62
7
  0
CIRCLE
  8
contour
  6
CONTINUOUS
 10
119.822863
 20
215.311133
 40
1.550000
 39
4
 62
7
  0
CIRCLE
  8
contour
  6
CONTINUOUS
 10
142.882863
 20
215.311133
 40
1.550000
 39
4
 62
7
  0
CIRCLE
  8
contour
  6
CONTINUOUS
 10
165.942863
 20
215.311133
 40
1.550000
 39
4
 62
7
  0
TEXT
  8
contour
  6
CONTINUOUS
 10
100.536684
 20
211.296810
 40
4.000000
 50
0.000000
 72
1
  7
Courier#0.800000#2.400000
  1
3.1
 39
4
 62
7
  0
TEXT
  8
contour
  6
CONTINUOUS
 10
124.011373
 20
211.411882
 40
4.000000
 50
0.000000
 72
1
  7
Courier#0.800000#2.400000
  1
3.1
 39
4
 62
7
  0
TEXT
  8
contour
  6
CONTINUOUS
 10
147.831277
 20
211.526954
 40
4.000000
 50
0.000000
 72
1
  7
Courier#0.800000#2.400000
  1
3.1
 39
4
 62
7
  0
TEXT
  8
contour
  6
CONTINUOUS
 10
170.730606
 20
211.526954
 40
4.000000
 50
0.000000
 72
1
  7
Courier#0.800000#2.400000
  1
3.1
 39
4
 62
7
  0
CIRCLE
  8
contour
  6
CONTINUOUS
 10
96.762863
 20
166.591585
 40
5.250000
 39
4
 62
7
  0
CIRCLE
  8
contour
  6
CONTINUOUS
 10
119.822863
 20
156.684163
 40
5.250000
 39
4
 62
7
  0
CIRCLE
  8
contour
  6
CONTINUOUS
 10
142.882863
 20
156.684163
 40
5.250000
 39
4
 62
7
  0
CIRCLE
  8
contour
  6
CONTINUOUS
 10
165.942863
 20
166.591585
 40
5.250000
 39
4
 62
7
  0
TEXT
  8
contour
  6
CONTINUOUS
 10
82.515329
 20
234.983663
 40
4.000000
 50
0.000000
 72
1
  7
Courier#0.800000#2.400000
  1
11.53mm
 39
4
 62
7
  0
TEXT
  8
contour
  6
CONTINUOUS
 10
82.515329
 20
229.383663
 40
4.000000
 50
0.000000
 72
1
  7
Courier#0.800000#2.400000
  1
terminal
 39
4
 62
7
  0
TEXT
  8
contour
  6
CONTINUOUS
 10
82.515329
 20
223.783663
 40
4.000000
 50
0.000000
 72
1
  7
Courier#0.800000#2.400000
  1
pitch
 39
4
 62
7
  0
TEXT
  8
contour
  6
CONTINUOUS
 10
102.320300
 20
175.883401
 40
4.000000
 50
0.000000
 72
1
  7
Courier#0.800000#2.400000
  1
10.5
 39
4
 62
7
  0
TEXT
  8
contour
  6
CONTINUOUS
 10
125.478541
 20
165.526920
 40
4.000000
 50
0.000000
 72
1
  7
Courier#0.800000#2.400000
  1
10.5
 39
4
 62
7
  0
TEXT
  8
contour
  6
CONTINUOUS
 10
147.773741
 20
165.383080
 40
4.000000
 50
0.000000
 72
1
  7
Courier#0.800000#2.400000
  1
10.5
 39
4
 62
7
  0
TEXT
  8
contour
  6
CONTINUOUS
 10
171.363502
 20
176.314921
 40
4.000000
 50
0.000000
 72
1
  7
Courier#0.800000#2.400000
  1
10.5
 39
4
 62
7
  0
CIRCLE
  8
contour
  6
CONTINUOUS
 10
43.627573
 20
80.117155
 40
1.550000
 39
4
 62
7
  0
CIRCLE
  8
contour
  6
CONTINUOUS
 10
66.687573
 20
80.117155
 40
1.550000
 39
4
 62
7
  0
CIRCLE
  8
contour
  6
CONTINUOUS
 10
89.747573
 20
80.117155
 40
1.550000
 39
4
 62
7
  0
CIRCLE
  8
contour
  6
CONTINUOUS
 10
112.807573
 20
80.117155
 40
1.550000
 39
4
 62
7
  0
TEXT
  8
contour
  6
CONTINUOUS
 10
47.401395
 20
76.102832
 40
4.000000
 50
0.000000
 72
1
  7
Courier#0.800000#2.400000
  1
3.1
 39
4
 62
7
  0
TEXT
  8
contour
  6
CONTINUOUS
 10
70.876083
 20
76.217904
 40
4.000000
 50
0.000000
 72
1
  7
Courier#0.800000#2.400000
  1
3.1
 39
4
 62
7
  0
TEXT
  8
contour
  6
CONTINUOUS
 10
94.695988
 20
76.332976
 40
4.000000
 50
0.000000
 72
1
  7
Courier#0.800000#2.400000
  1
3.1
 39
4
 62
7
  0
TEXT
  8
contour
  6
CONTINUOUS
 10
117.595317
 20
76.332976
 40
4.000000
 50
0.000000
 72
1
  7
Courier#0.800000#2.400000
  1
3.1
 39
4
 62
7
  0
CIRCLE
  8
contour
  6
CONTINUOUS
 10
43.627573
 20
31.397606
 40
5.250000
 39
4
 62
7
  0
CIRCLE
  8
contour
  6
CONTINUOUS
 10
66.687573
 20
21.490185
 40
5.250000
 39
4
 62
7
  0
CIRCLE
  8
contour
  6
CONTINUOUS
 10
89.747573
 20
21.490185
 40
5.250000
 39
4
 62
7
  0
CIRCLE
  8
contour
  6
CONTINUOUS
 10
112.807573
 20
31.397606
 40
5.250000
 39
4
 62
7
  0
TEXT
  8
contour
  6
CONTINUOUS
 10
29.380040
 20
99.789684
 40
4.000000
 50
0.000000
 72
1
  7
Courier#0.800000#2.400000
  1
11.53mm
 39
4
 62
7
  0
TEXT
  8
contour
  6
CONTINUOUS
 10
29.380040
 20
94.189684
 40
4.000000
 50
0.000000
 72
1
  7
Courier#0.800000#2.400000
  1
terminal
 39
4
 62
7
  0
TEXT
  8
contour
  6
CONTINUOUS
 10
29.380040
 20
88.589684
 40
4.000000
 50
0.000000
 72
1
  7
Courier#0.800000#2.400000
  1
pitch
 39
4
 62
7
  0
TEXT
  8
contour
  6
CONTINUOUS
 10
49.185011
 20
40.689423
 40
4.000000
 50
0.000000
 72
1
  7
Courier#0.800000#2.400000
  1
10.5
 39
4
 62
7
  0
TEXT
  8
contour
  6
CONTINUOUS
 10
72.343251
 20
30.332942
 40
4.000000
 50
0.000000
 72
1
  7
Courier#0.800000#2.400000
  1
10.5
 39
4
 62
7
  0
TEXT
  8
contour
  6
CONTINUOUS
 10
94.638452
 20
30.189102
 40
4.000000
 50
0.000000
 72
1
  7
Courier#0.800000#2.400000
  1
10.5
 39
4
 62
7
  0
TEXT
  8
contour
  6
CONTINUOUS
 10
118.228213
 20
41.120943
 40
4.000000
 50
0.000000
 72
1
  7
Courier#0.800000#2.400000
  1
10.5
 39
4
 62
7
  0
TEXT
  8
contour
  6
CONTINUOUS
 10
147.917581
 20
241.501413
 40
4.000000
 50
90.000000
 72
1
  7
Courier#0.800000#2.400000
  1
Cap\~seam
 39
4
 62
7
  0
TEXT
  8
contour
  6
CONTINUOUS
 10
94.782292
 20
106.307435
 40
4.000000
 50
90.000000
 72
1
  7
Courier#0.800000#2.400000
  1
Cap\~seam
 39
4
 62
7
  0
CIRCLE
  8
contour
  6
CONTINUOUS
 10
131.352863
 20
275.061133
 40
4.250000
 39
4
 62
7
  0
TEXT
  8
contour
  6
CONTINUOUS
 10
137.636542
 20
266.745055
 40
4.000000
 50
0.000000
 72
1
  7
Courier#0.800000#2.400000
  1
8.5
 39
4
 62
7
  0
CIRCLE
  8
contour
  6
CONTINUOUS
 10
78.217573
 20
139.867155
 40
4.250000
 39
4
 62
7
  0
TEXT
  8
contour
  6
CONTINUOUS
 10
84.501253
 20
131.551077
 40
4.000000
 50
0.000000
 72
1
  7
Courier#0.800000#2.400000
  1
8.5
 39
4
 62
7
  0
LINE
  8
helper
  6
CONTINUOUS
 10
59.852863
 20
215.311133
 11
202.852863
 21
215.311133
 39
1
 62
7
  0
LINE
  8
helper
  6
CONTINUOUS
 10
96.762863
 20
152.734924
 11
96.762863
 21
277.887342
 39
1
 62
7
  0
LINE
  8
helper
  6
CONTINUOUS
 10
119.822863
 20
144.746913
 11
119.822863
 21
285.875353
 39
1
 62
7
  0
LINE
  8
helper
  6
CONTINUOUS
 10
142.882863
 20
144.746913
 11
142.882863
 21
285.875353
 39
1
 62
7
  0
LINE
  8
helper
  6
CONTINUOUS
 10
165.942863
 20
152.734924
 11
165.942863
 21
277.887342
 39
1
 62
7
  0
LINE
  8
helper
  6
CONTINUOUS
 10
6.717573
 20
80.117155
 11
149.717573
 21
80.117155
 39
1
 62
7
  0
LINE
  8
helper
  6
CONTINUOUS
 10
43.627573
 20
17.540946
 11
43.627573
 21
142.693364
 39
1
 62
7
  0
LINE
  8
helper
  6
CONTINUOUS
 10
66.687573
 20
9.552935
 11
66.687573
 21
150.681374
 39
1
 62
7
  0
LINE
  8
helper
  6
CONTINUOUS
 10
89.747573
 20
9.552935
 11
89.747573
 21
150.681374
 39
1
 62
7
  0
LINE
  8
helper
  6
CONTINUOUS
 10
112.807573
 20
17.540946
 11
112.807573
 21
142.693364
 39
1
 62
7
  0
LINE
  8
helper
  6
CONTINUOUS
 10
90.424530
 20
156.684163
 11
172.281195
 21
156.684163
 39
1
 62
7
  0
LINE
  8
helper
  6
CONTINUOUS
 10
79.020697
 20
166.591585
 11
183.685029
 21
166.591585
 39
1
 62
7
  0
LINE
  8
helper
  6
CONTINUOUS
 10
25.885407
 20
31.397606
 11
130.549739
 21
31.397606
 39
1
 62
7
  0
LINE
  8
helper
  6
CONTINUOUS
 10
37.289241
 20
21.490185
 11
119.145906
 21
21.490185
 39
1
 62
7
  0
LINE
  8
helper
  6
CONTINUOUS
 10
38.946878
 20
139.867155
 11
117.488268
 21
139.867155
 39
1
 62
7
  0
LINE
  8
helper
  6
CONTINUOUS
 10
92.082167
 20
275.061133
 11
170.623558
 21
275.061133
 39
1
 62
7
  0
LINE
  8
helper
  6
CONTINUOUS
 10
131.352863
 20
286.811133
 11
131.352863
 21
215.311133
 39
1
 62
7
  0
LINE
  8
helper
  6
CONTINUOUS
 10
78.217573
 20
151.617155
 11
78.217573
 21
80.117155
 39
1
 62
7
  0
LINE
  8
mark
  6
CONTINUOUS
 10
148.252374
 20
256.110163
 11
158.714728
 21
281.368520
 39
4
 62
7
  0
LINE
  8
mark
  6
CONTINUOUS
 10
95.117085
 20
120.916185
 11
105.579439
 21
146.174541
 39
4
 62
7
  0
ENDSEC
  0
EOF
