  0
SECTION
  2
HEADER
  9
$LIMMIN
 10
0.000000
 20
0.000000
  9
$LIMMAX
 10
178.037071
 20
273.980632
  9
$EXTMIN
 10
0.000000
 20
0.000000
  9
$EXTMAX
 10
178.037071
 20
273.980632
  9
$ANGBASE
 50
0.000000
  9
$ANGDIR
 70
0
  9
$INSUNITS
 70
4
  9
$DIMALT
 70
4
  9
$DIMLUNIT
 70
2
  9
$DIMASZ
 40
3.000000
  9
$DIMTXT
 40
5.000000
  9
$DIMRND
 40
0.010000
  9
$DIMEXE
 40
2.000000
  9
$DIMEXO
 40
2.000000
  9
$DIMAUNIT
 70
0
  9
$DIMADEC
 70
2
  9
$GRIDUNIT
 10
0.001000
 20
0.001000
  9
$PLIMMIN
 10
0.000000
 20
0.000000
  9
$PLIMMAX
 10
210.000000
 20
297.000000
  9
$PSVPSCALE
 40
1.000000
  0
ENDSEC
  0
SECTION
  2
TABLES
  0
TABLE
  2
LTYPE
 70
     1
  0
LTYPE
  2
CONTINUOUS
 70
    64
  3
Ausgez
 72
    65
 73
  0
 40
0.000000
  0
ENDTAB
  0
TABLE
  2
LAYER
 70
     1
  0
LAYER
  2
default
 70
    64
 62
7
  6
CONTINUOUS
  0
LAYER
  2
helper
 70
    64
 62
7
  6
CONTINUOUS
  0
LAYER
  2
contour
 70
    64
 62
7
  6
CONTINUOUS
  0
ENDTAB
  0
ENDSEC
  0
SECTION
  2
BLOCKS
  0
ENDSEC
  0
SECTION
  2
ENTITIES
  0
TEXT
  8
contour
  6
CONTINUOUS
 10
66.475279
 20
216.436907
 40
10.000000
 50
0.000000
 72
0
  7
Normal#2.000000#6.000000
  1
5.5
 39
4
 62
7
  0
TEXT
  8
contour
  6
CONTINUOUS
 10
105.964559
 20
217.753217
 40
10.000000
 50
0.000000
 72
0
  7
Normal#2.000000#6.000000
  1
5.5
 39
4
 62
7
  0
TEXT
  8
contour
  6
CONTINUOUS
 10
65.817124
 20
155.886679
 40
10.000000
 50
0.000000
 72
0
  7
Normal#2.000000#6.000000
  1
5.5
 39
4
 62
7
  0
TEXT
  8
contour
  6
CONTINUOUS
 10
105.964558
 20
155.886679
 40
10.000000
 50
0.000000
 72
0
  7
Normal#2.000000#6.000000
  1
5.5
 39
4
 62
7
  0
CIRCLE
  8
contour
  6
CONTINUOUS
 10
82.537071
 20
241.980632
 40
2.750000
 39
4
 62
7
  0
CIRCLE
  8
contour
  6
CONTINUOUS
 10
123.537071
 20
241.980632
 40
2.750000
 39
4
 62
7
  0
CIRCLE
  8
contour
  6
CONTINUOUS
 10
123.537071
 20
177.980632
 40
2.750000
 39
4
 62
7
  0
CIRCLE
  8
contour
  6
CONTINUOUS
 10
82.537071
 20
177.980632
 40
2.750000
 39
4
 62
7
  0
ARC
  8
contour
  6
CONTINUOUS
 10
103.037071
 20
198.980632
 40
75.000000
 50
0.000000
 51
180.000000
 39
4
 62
7
  0
LINE
  8
helper
  6
CONTINUOUS
 10
41.587905
 20
241.980632
 11
164.486237
 21
241.980632
 39
1
 62
7
  0
LINE
  8
helper
  6
CONTINUOUS
 10
28.037071
 20
177.980632
 11
178.037071
 21
177.980632
 39
1
 62
7
  0
LINE
  8
helper
  6
CONTINUOUS
 10
28.037071
 20
273.980632
 11
178.037071
 21
273.980632
 39
0
 62
7
  0
LINE
  8
helper
  6
CONTINUOUS
 10
28.037071
 20
273.980632
 11
28.037071
 21
150.000000
 39
0
 62
7
  0
LINE
  8
helper
  6
CONTINUOUS
 10
178.037071
 20
273.980632
 11
178.037071
 21
150.000000
 39
0
 62
7
  0
LINE
  8
helper
  6
CONTINUOUS
 10
82.537071
 20
271.124585
 11
82.537071
 21
150.000000
 39
1
 62
7
  0
LINE
  8
helper
  6
CONTINUOUS
 10
123.537071
 20
271.124585
 11
123.537071
 21
150.000000
 39
1
 62
7
  0
LINE
  8
contour
  6
CONTINUOUS
 10
28.037071
 20
198.980632
 11
28.037071
 21
150.000000
 39
4
 62
7
  0
LINE
  8
contour
  6
CONTINUOUS
 10
178.037071
 20
198.980632
 11
178.037071
 21
150.000000
 39
4
 62
7
  0
LINE
  8
helper
  6
CONTINUOUS
 10
28.037071
 20
150.000000
 11
178.037071
 21
150.000000
 39
0
 62
7
  0
TEXT
  8
contour
  6
CONTINUOUS
 10
66.475279
 20
92.456275
 40
10.000000
 50
0.000000
 72
0
  7
Normal#2.000000#6.000000
  1
5.5
 39
4
 62
7
  0
TEXT
  8
contour
  6
CONTINUOUS
 10
105.964559
 20
93.772585
 40
10.000000
 50
0.000000
 72
0
  7
Normal#2.000000#6.000000
  1
5.5
 39
4
 62
7
  0
TEXT
  8
contour
  6
CONTINUOUS
 10
65.817124
 20
31.906047
 40
10.000000
 50
0.000000
 72
0
  7
Normal#2.000000#6.000000
  1
5.5
 39
4
 62
7
  0
TEXT
  8
contour
  6
CONTINUOUS
 10
105.964558
 20
31.906047
 40
10.000000
 50
0.000000
 72
0
  7
Normal#2.000000#6.000000
  1
5.5
 39
4
 62
7
  0
CIRCLE
  8
contour
  6
CONTINUOUS
 10
82.537071
 20
118.000000
 40
2.750000
 39
4
 62
7
  0
CIRCLE
  8
contour
  6
CONTINUOUS
 10
123.537071
 20
118.000000
 40
2.750000
 39
4
 62
7
  0
CIRCLE
  8
contour
  6
CONTINUOUS
 10
123.537071
 20
54.000000
 40
2.750000
 39
4
 62
7
  0
CIRCLE
  8
contour
  6
CONTINUOUS
 10
82.537071
 20
54.000000
 40
2.750000
 39
4
 62
7
  0
ARC
  8
contour
  6
CONTINUOUS
 10
103.037071
 20
75.000000
 40
75.000000
 50
0.000000
 51
180.000000
 39
4
 62
7
  0
LINE
  8
helper
  6
CONTINUOUS
 10
41.587905
 20
118.000000
 11
164.486237
 21
118.000000
 39
1
 62
7
  0
LINE
  8
helper
  6
CONTINUOUS
 10
28.037071
 20
54.000000
 11
178.037071
 21
54.000000
 39
1
 62
7
  0
LINE
  8
helper
  6
CONTINUOUS
 10
28.037071
 20
150.000000
 11
178.037071
 21
150.000000
 39
0
 62
7
  0
LINE
  8
helper
  6
CONTINUOUS
 10
28.037071
 20
150.000000
 11
28.037071
 21
26.019368
 39
0
 62
7
  0
LINE
  8
helper
  6
CONTINUOUS
 10
178.037071
 20
150.000000
 11
178.037071
 21
26.019368
 39
0
 62
7
  0
LINE
  8
helper
  6
CONTINUOUS
 10
82.537071
 20
147.143953
 11
82.537071
 21
26.019368
 39
1
 62
7
  0
LINE
  8
helper
  6
CONTINUOUS
 10
123.537071
 20
147.143953
 11
123.537071
 21
26.019368
 39
1
 62
7
  0
LINE
  8
contour
  6
CONTINUOUS
 10
28.037071
 20
75.000000
 11
28.037071
 21
26.019368
 39
4
 62
7
  0
LINE
  8
contour
  6
CONTINUOUS
 10
178.037071
 20
75.000000
 11
178.037071
 21
26.019368
 39
4
 62
7
  0
LINE
  8
helper
  6
CONTINUOUS
 10
28.037071
 20
26.019368
 11
178.037071
 21
26.019368
 39
0
 62
7
  0
ARC
  8
contour
  6
CONTINUOUS
 10
103.037071
 20
198.980632
 40
77.000000
 50
13.087353
 51
76.912647
 39
4
 62
7
  0
ARC
  8
contour
  6
CONTINUOUS
 10
103.037071
 20
75.000000
 40
77.000000
 50
13.087353
 51
76.912647
 39
4
 62
7
  0
ARC
  8
contour
  6
CONTINUOUS
 10
103.037071
 20
75.000000
 40
77.000000
 50
103.087353
 51
166.912647
 39
4
 62
7
  0
ARC
  8
contour
  6
CONTINUOUS
 10
103.037071
 20
198.980632
 40
77.000000
 50
103.087353
 51
166.912647
 39
4
 62
7
  0
TEXT
  8
contour
  6
CONTINUOUS
 10
37.978852
 20
151.463279
 40
5.000000
 50
0.000000
 72
0
  7
Normal#0.500000#3.000000
  1
Cut here
 39
4
 62
7
  0
ENDSEC
  0
EOF
