  0
SECTION
  2
HEADER
  9
$LIMMIN
 10
0.000000
 20
0.000000
  9
$LIMMAX
 10
173.727169
 20
227.514643
  9
$EXTMIN
 10
0.000000
 20
0.000000
  9
$EXTMAX
 10
173.727169
 20
227.514643
  9
$ANGBASE
 50
0.000000
  9
$ANGDIR
 70
0
  9
$INSUNITS
 70
4
  9
$DIMALT
 70
4
  9
$DIMLUNIT
 70
2
  9
$DIMASZ
 40
3.000000
  9
$DIMTXT
 40
5.000000
  9
$DIMRND
 40
0.010000
  9
$DIMEXE
 40
2.000000
  9
$DIMEXO
 40
2.000000
  9
$DIMAUNIT
 70
0
  9
$DIMADEC
 70
2
  9
$GRIDUNIT
 10
0.001000
 20
0.001000
  9
$PLIMMIN
 10
0.000000
 20
0.000000
  9
$PLIMMAX
 10
210.000000
 20
297.000000
  9
$PSVPSCALE
 40
1.000000
  0
ENDSEC
  0
SECTION
  2
TABLES
  0
TABLE
  2
LTYPE
 70
     1
  0
LTYPE
  2
CONTINUOUS
 70
    64
  3
Ausgez
 72
    65
 73
  0
 40
0.000000
  0
ENDTAB
  0
TABLE
  2
LAYER
 70
     1
  0
LAYER
  2
default
 70
    64
 62
7
  6
CONTINUOUS
  0
LAYER
  2
contour
 70
    64
 62
7
  6
CONTINUOUS
  0
LAYER
  2
bend
 70
    64
 62
7
  6
DOT
  0
ENDTAB
  0
ENDSEC
  0
SECTION
  2
BLOCKS
  0
ENDSEC
  0
SECTION
  2
ENTITIES
  0
LINE
  8
bend
  6
DOT
 10
51.451527
 20
113.724282
 11
59.936808
 21
105.239001
 39
2
 62
7
  0
LINE
  8
bend
  6
DOT
 10
149.017530
 20
105.239001
 11
157.502811
 21
113.724282
 39
2
 62
7
  0
LINE
  8
bend
  6
DOT
 10
157.502811
 20
202.805004
 11
149.017530
 21
211.290285
 39
2
 62
7
  0
LINE
  8
bend
  6
DOT
 10
59.936808
 20
211.290285
 11
51.451527
 21
202.805004
 39
2
 62
7
  0
LINE
  8
contour
  6
CONTINUOUS
 10
35.227169
 20
219.029362
 11
43.712450
 21
227.514643
 39
3
 62
7
  0
LINE
  8
contour
  6
CONTINUOUS
 10
43.712450
 20
89.014643
 11
35.227169
 21
97.499924
 39
3
 62
7
  0
LINE
  8
contour
  6
CONTINUOUS
 10
165.241888
 20
227.514643
 11
173.727169
 21
219.029362
 39
3
 62
7
  0
LINE
  8
contour
  6
CONTINUOUS
 10
173.727169
 20
97.499924
 11
165.241888
 21
89.014643
 39
3
 62
7
  0
LINE
  8
contour
  6
CONTINUOUS
 10
35.227169
 20
97.499924
 11
51.451527
 21
113.724282
 39
3
 62
7
  0
LINE
  8
contour
  6
CONTINUOUS
 10
43.712450
 20
89.014643
 11
59.936808
 21
105.239001
 39
3
 62
7
  0
LINE
  8
contour
  6
CONTINUOUS
 10
149.017530
 20
105.239001
 11
165.241888
 21
89.014643
 39
3
 62
7
  0
LINE
  8
contour
  6
CONTINUOUS
 10
157.502811
 20
113.724282
 11
173.727169
 21
97.499924
 39
3
 62
7
  0
LINE
  8
contour
  6
CONTINUOUS
 10
157.502811
 20
202.805004
 11
173.727169
 21
219.029362
 39
3
 62
7
  0
LINE
  8
contour
  6
CONTINUOUS
 10
149.017530
 20
211.290285
 11
165.241888
 21
227.514643
 39
3
 62
7
  0
LINE
  8
contour
  6
CONTINUOUS
 10
43.712450
 20
227.514643
 11
59.936808
 21
211.290285
 39
3
 62
7
  0
LINE
  8
contour
  6
CONTINUOUS
 10
35.227169
 20
219.029362
 11
51.451527
 21
202.805004
 39
3
 62
7
  0
ARC
  8
contour
  6
CONTINUOUS
 10
104.477169
 20
158.264643
 40
69.250000
 50
229.970487
 51
310.029513
 39
3
 62
7
  0
ARC
  8
contour
  6
CONTINUOUS
 10
104.477169
 20
158.264643
 40
69.250000
 50
319.970487
 51
40.029513
 39
3
 62
7
  0
ARC
  8
contour
  6
CONTINUOUS
 10
104.477169
 20
158.264643
 40
69.250000
 50
49.970487
 51
130.029513
 39
3
 62
7
  0
ARC
  8
contour
  6
CONTINUOUS
 10
104.477169
 20
158.264643
 40
69.250000
 50
139.970487
 51
220.029513
 39
3
 62
7
  0
CIRCLE
  8
contour
  6
CONTINUOUS
 10
104.477169
 20
158.264643
 40
60.250000
 39
3
 62
7
  0
ENDSEC
  0
EOF
