  0
SECTION
  2
HEADER
  9
$LIMMIN
 10
0.000000
 20
0.000000
  9
$LIMMAX
 10
204.635289
 20
286.693978
  9
$EXTMIN
 10
0.000000
 20
0.000000
  9
$EXTMAX
 10
204.635289
 20
286.693978
  9
$ANGBASE
 50
0.000000
  9
$ANGDIR
 70
0
  9
$INSUNITS
 70
4
  9
$DIMALT
 70
4
  9
$DIMLUNIT
 70
2
  9
$DIMASZ
 40
2.500000
  9
$DIMTXT
 40
2.500000
  9
$DIMRND
 40
0.010000
  9
$DIMEXE
 40
1.250000
  9
$DIMEXO
 40
0.625000
  9
$DIMAUNIT
 70
0
  9
$DIMADEC
 70
2
  9
$GRIDUNIT
 10
0.001000
 20
20.000000
  9
$PLIMMIN
 10
0.000000
 20
0.000000
  9
$PLIMMAX
 10
210.000000
 20
297.000000
  9
$PSVPSCALE
 40
1.000000
  0
ENDSEC
  0
SECTION
  2
TABLES
  0
TABLE
  2
LTYPE
 70
     1
  0
LTYPE
  2
CONTINUOUS
 70
    64
  3
Ausgez
 72
    65
 73
  0
 40
0.000000
  0
ENDTAB
  0
TABLE
  2
LAYER
 70
     1
  0
LAYER
  2
default
 70
    64
 62
7
  6
CONTINUOUS
  0
LAYER
  2
0
 70
    64
 62
7
  6
CONTINUOUS
  0
LAYER
  2
contour
 70
    64
 62
7
  6
CONTINUOUS
  0
LAYER
  2
helper
 70
    64
 62
7
  6
CONTINUOUS
  0
LAYER
  2
mark
 70
    64
 62
7
  6
CONTINUOUS
  0
ENDTAB
  0
ENDSEC
  0
SECTION
  2
BLOCKS
  0
ENDSEC
  0
SECTION
  2
ENTITIES
  0
CIRCLE
  8
contour
  6
CONTINUOUS
 10
80.000000
 20
80.000000
 40
71.500000
 39
3
 62
7
  0
CIRCLE
  8
contour
  6
CONTINUOUS
 10
133.135289
 20
215.193978
 40
71.500000
 39
3
 62
7
  0
CIRCLE
  8
contour
  6
CONTINUOUS
 10
102.805289
 20
215.193978
 40
1.550000
 39
3
 62
7
  0
CIRCLE
  8
contour
  6
CONTINUOUS
 10
123.025289
 20
215.193978
 40
1.550000
 39
3
 62
7
  0
CIRCLE
  8
contour
  6
CONTINUOUS
 10
143.245289
 20
215.193978
 40
1.550000
 39
3
 62
7
  0
CIRCLE
  8
contour
  6
CONTINUOUS
 10
163.465289
 20
215.193978
 40
1.550000
 39
3
 62
7
  0
CIRCLE
  8
contour
  6
CONTINUOUS
 10
102.805289
 20
163.714336
 40
5.250000
 39
3
 62
7
  0
CIRCLE
  8
contour
  6
CONTINUOUS
 10
123.025289
 20
156.305521
 40
5.250000
 39
3
 62
7
  0
CIRCLE
  8
contour
  6
CONTINUOUS
 10
143.245289
 20
156.305521
 40
5.250000
 39
3
 62
7
  0
CIRCLE
  8
contour
  6
CONTINUOUS
 10
163.465289
 20
163.714336
 40
5.250000
 39
3
 62
7
  0
TEXT
  8
contour
  6
CONTINUOUS
 10
106.098507
 20
173.959256
 40
4.000000
 50
0.000000
 72
0
  7
Courier#0.800000#2.400000
  1
10.5
 39
3
 62
7
  0
TEXT
  8
contour
  6
CONTINUOUS
 10
127.449758
 20
166.542506
 40
4.000000
 50
0.000000
 72
0
  7
Courier#0.800000#2.400000
  1
10.5
 39
3
 62
7
  0
TEXT
  8
contour
  6
CONTINUOUS
 10
145.429758
 20
167.216756
 40
4.000000
 50
0.000000
 72
0
  7
Courier#0.800000#2.400000
  1
10.5
 39
3
 62
7
  0
TEXT
  8
contour
  6
CONTINUOUS
 10
165.882009
 20
173.734506
 40
4.000000
 50
0.000000
 72
0
  7
Courier#0.800000#2.400000
  1
10.5
 39
3
 62
7
  0
TEXT
  8
contour
  6
CONTINUOUS
 10
84.297756
 20
234.866508
 40
4.000000
 50
0.000000
 72
1
  7
Courier#0.800000#2.400000
  1
10.11mm
 39
3
 62
7
  0
TEXT
  8
contour
  6
CONTINUOUS
 10
84.297756
 20
229.266508
 40
4.000000
 50
0.000000
 72
1
  7
Courier#0.800000#2.400000
  1
terminal
 39
3
 62
7
  0
TEXT
  8
contour
  6
CONTINUOUS
 10
84.297756
 20
223.666508
 40
4.000000
 50
0.000000
 72
1
  7
Courier#0.800000#2.400000
  1
pitch
 39
3
 62
7
  0
CIRCLE
  8
contour
  6
CONTINUOUS
 10
49.670000
 20
80.000000
 40
1.550000
 39
3
 62
7
  0
CIRCLE
  8
contour
  6
CONTINUOUS
 10
69.890000
 20
80.000000
 40
1.550000
 39
3
 62
7
  0
CIRCLE
  8
contour
  6
CONTINUOUS
 10
90.110000
 20
80.000000
 40
1.550000
 39
3
 62
7
  0
CIRCLE
  8
contour
  6
CONTINUOUS
 10
110.330000
 20
80.000000
 40
1.550000
 39
3
 62
7
  0
CIRCLE
  8
contour
  6
CONTINUOUS
 10
49.670000
 20
28.520357
 40
5.250000
 39
3
 62
7
  0
CIRCLE
  8
contour
  6
CONTINUOUS
 10
69.890000
 20
21.111543
 40
5.250000
 39
3
 62
7
  0
CIRCLE
  8
contour
  6
CONTINUOUS
 10
90.110000
 20
21.111543
 40
5.250000
 39
3
 62
7
  0
CIRCLE
  8
contour
  6
CONTINUOUS
 10
110.330000
 20
28.520357
 40
5.250000
 39
3
 62
7
  0
TEXT
  8
contour
  6
CONTINUOUS
 10
52.963218
 20
38.765278
 40
4.000000
 50
0.000000
 72
0
  7
Courier#0.800000#2.400000
  1
10.5
 39
3
 62
7
  0
TEXT
  8
contour
  6
CONTINUOUS
 10
74.314468
 20
31.348527
 40
4.000000
 50
0.000000
 72
0
  7
Courier#0.800000#2.400000
  1
10.5
 39
3
 62
7
  0
TEXT
  8
contour
  6
CONTINUOUS
 10
92.294469
 20
32.022777
 40
4.000000
 50
0.000000
 72
0
  7
Courier#0.800000#2.400000
  1
10.5
 39
3
 62
7
  0
TEXT
  8
contour
  6
CONTINUOUS
 10
112.746719
 20
38.540528
 40
4.000000
 50
0.000000
 72
0
  7
Courier#0.800000#2.400000
  1
10.5
 39
3
 62
7
  0
TEXT
  8
contour
  6
CONTINUOUS
 10
31.162467
 20
99.672530
 40
4.000000
 50
0.000000
 72
1
  7
Courier#0.800000#2.400000
  1
10.11mm
 39
3
 62
7
  0
TEXT
  8
contour
  6
CONTINUOUS
 10
31.162467
 20
94.072530
 40
4.000000
 50
0.000000
 72
1
  7
Courier#0.800000#2.400000
  1
terminal
 39
3
 62
7
  0
TEXT
  8
contour
  6
CONTINUOUS
 10
31.162467
 20
88.472530
 40
4.000000
 50
0.000000
 72
1
  7
Courier#0.800000#2.400000
  1
pitch
 39
3
 62
7
  0
TEXT
  8
contour
  6
CONTINUOUS
 10
149.700008
 20
241.384258
 40
4.000000
 50
90.000000
 72
1
  7
Courier#0.800000#2.400000
  1
Cap\~seam
 39
3
 62
7
  0
TEXT
  8
contour
  6
CONTINUOUS
 10
96.564719
 20
106.190280
 40
4.000000
 50
90.000000
 72
1
  7
Courier#0.800000#2.400000
  1
Cap\~seam
 39
3
 62
7
  0
CIRCLE
  8
contour
  6
CONTINUOUS
 10
133.135289
 20
274.943978
 40
4.250000
 39
3
 62
7
  0
CIRCLE
  8
contour
  6
CONTINUOUS
 10
80.000000
 20
139.750000
 40
4.250000
 39
3
 62
7
  0
LINE
  8
helper
  6
CONTINUOUS
 10
61.635289
 20
215.193978
 11
204.635289
 21
215.193978
 39
1
 62
7
  0
LINE
  8
helper
  6
CONTINUOUS
 10
163.465289
 20
150.445688
 11
163.465289
 21
279.942269
 39
1
 62
7
  0
LINE
  8
helper
  6
CONTINUOUS
 10
92.584092
 20
156.305521
 11
173.686487
 21
156.305521
 39
1
 62
7
  0
LINE
  8
helper
  6
CONTINUOUS
 10
83.515773
 20
163.714336
 11
182.754806
 21
163.714336
 39
1
 62
7
  0
LINE
  8
helper
  6
CONTINUOUS
 10
102.805289
 20
150.445688
 11
102.805289
 21
279.942269
 39
1
 62
7
  0
LINE
  8
helper
  6
CONTINUOUS
 10
123.025289
 20
144.412357
 11
123.025289
 21
285.975599
 39
1
 62
7
  0
LINE
  8
helper
  6
CONTINUOUS
 10
143.245289
 20
144.412357
 11
143.245289
 21
285.975599
 39
1
 62
7
  0
LINE
  8
helper
  6
CONTINUOUS
 10
8.500000
 20
80.000000
 11
151.500000
 21
80.000000
 39
1
 62
7
  0
LINE
  8
helper
  6
CONTINUOUS
 10
110.330000
 20
15.251710
 11
110.330000
 21
144.748290
 39
1
 62
7
  0
LINE
  8
helper
  6
CONTINUOUS
 10
39.448803
 20
21.111543
 11
120.551197
 21
21.111543
 39
1
 62
7
  0
LINE
  8
helper
  6
CONTINUOUS
 10
30.380484
 20
28.520357
 11
129.619516
 21
28.520357
 39
1
 62
7
  0
LINE
  8
helper
  6
CONTINUOUS
 10
49.670000
 20
15.251710
 11
49.670000
 21
144.748290
 39
1
 62
7
  0
LINE
  8
helper
  6
CONTINUOUS
 10
69.890000
 20
9.218379
 11
69.890000
 21
150.781621
 39
1
 62
7
  0
LINE
  8
helper
  6
CONTINUOUS
 10
90.110000
 20
9.218379
 11
90.110000
 21
150.781621
 39
1
 62
7
  0
LINE
  8
helper
  6
CONTINUOUS
 10
40.729305
 20
139.750000
 11
119.270695
 21
139.750000
 39
1
 62
7
  0
LINE
  8
helper
  6
CONTINUOUS
 10
93.864594
 20
274.943978
 11
172.405985
 21
274.943978
 39
1
 62
7
  0
LINE
  8
helper
  6
CONTINUOUS
 10
133.135289
 20
286.693978
 11
133.135289
 21
215.193978
 39
1
 62
7
  0
LINE
  8
helper
  6
CONTINUOUS
 10
80.000000
 20
151.500000
 11
80.000000
 21
80.000000
 39
1
 62
7
  0
LINE
  8
mark
  6
CONTINUOUS
 10
150.034801
 20
255.993008
 11
160.497155
 21
281.251365
 39
4
 62
7
  0
LINE
  8
mark
  6
CONTINUOUS
 10
96.899512
 20
120.799030
 11
107.361865
 21
146.057387
 39
4
 62
7
  0
TEXT
  8
contour
  6
CONTINUOUS
 10
42.477855
 20
73.416542
 40
4.000000
 50
0.000000
 72
1
  7
Courier#0.800000#2.400000
  1
3.1
 39
3
 62
7
  0
TEXT
  8
contour
  6
CONTINUOUS
 10
63.874056
 20
73.236742
 40
4.000000
 50
0.000000
 72
1
  7
Courier#0.800000#2.400000
  1
3.1
 39
3
 62
7
  0
TEXT
  8
contour
  6
CONTINUOUS
 10
83.652057
 20
73.596342
 40
4.000000
 50
0.000000
 72
1
  7
Courier#0.800000#2.400000
  1
3.1
 39
3
 62
7
  0
TEXT
  8
contour
  6
CONTINUOUS
 10
103.969457
 20
73.596342
 40
4.000000
 50
0.000000
 72
1
  7
Courier#0.800000#2.400000
  1
3.1
 39
3
 62
7
  0
TEXT
  8
contour
  6
CONTINUOUS
 10
83.960720
 20
132.428178
 40
4.000000
 50
0.000000
 72
0
  7
Courier#0.800000#2.400000
  1
8.5
 39
3
 62
7
  0
TEXT
  8
contour
  6
CONTINUOUS
 10
95.864610
 20
208.990010
 40
4.000000
 50
0.000000
 72
1
  7
Courier#0.800000#2.400000
  1
3.1
 39
3
 62
7
  0
TEXT
  8
contour
  6
CONTINUOUS
 10
117.260810
 20
208.810210
 40
4.000000
 50
0.000000
 72
1
  7
Courier#0.800000#2.400000
  1
3.1
 39
3
 62
7
  0
TEXT
  8
contour
  6
CONTINUOUS
 10
137.038811
 20
209.169810
 40
4.000000
 50
0.000000
 72
1
  7
Courier#0.800000#2.400000
  1
3.1
 39
3
 62
7
  0
TEXT
  8
contour
  6
CONTINUOUS
 10
157.356212
 20
209.169810
 40
4.000000
 50
0.000000
 72
1
  7
Courier#0.800000#2.400000
  1
3.1
 39
3
 62
7
  0
TEXT
  8
contour
  6
CONTINUOUS
 10
132.987278
 20
265.953378
 40
4.000000
 50
0.000000
 72
0
  7
Courier#0.800000#2.400000
  1
8.5
 39
3
 62
7
  0
ENDSEC
  0
EOF
